Song name
# A B C D E F G H I J K L M N O P Q R S T U V W X Y Z

Stellar Kart - Punk The Halls tab

this is the rest of the song..
i posted the intro and heres the rest
and the intro.

intro
e-----------------------------------------------------------------------|
b-----------------------------------------------------------------------|
g--5-12-9---5-5-7---5-12-9---5-9-7-----5-12-9---5-5-7--5-12-9--5-9-7----|
d-----------------------------------------------------------------------|
a-----------------------------------------------------------------------|
e-----------------------------------------------------------------------|

e-----------------------------------------------------------------------|
b-----------------------------------------------------------------------|
g---5-5-5--555----------------------------------------------------------|
d---5-5-5--555-----repeat this the whole time---------------------------|
a---3-3-3--333----------------------------------------------------------|
e-----------------------------------------------------------------------|

verse.
e-----------------------------------------------------------------------|
b-----------------------------------------------------------------------|
g---5-5-5--555----------------------------------------------------------|
d---5-5-5--555--3-3-3--7-7-5--------------------------------------------|
a---3-3-3--333--3-3-3--7-7-5--------------------------------------------|
e---------------1-1-1--5-5-3--------------------------------------------|

this is the part during the verse
e--8-7-5-3--1-0---------------------------------------------------------|
b--------------3-1------------------------------------------------------|
g-----------------------------------------------------------------------|
d-----------------------------------------------------------------------|
a-----------------------------------------------------------------------|
e-----------------------------------------------------------------------|

chorus
e-----------------------------------------------------------------------|
b-----------------------------------------------------------------------|
g--5-5-5-5-5-5-5-5------------------------------------------------------|
d--5-5-5-5-5-5-5-5-3-3-3-3-7-7-3-3--repeat1-----------------------------|
a--3-3-3-3-3-3-3-3-3-3-3-3-7-7-3-3--------------------------------------|
e------------------1-1-1-1-5-5-5-5--------------------------------------|

e-----------------------------------------------------------------------|
b-----------------------------------------------------------------------|
g--5-5-5-5-5-5-5-5---7-7-7-7--------------------------------------------|
d--5-5-5-5-5-5-5-5---7-7-7-7-3-3-5-5------------------------------------|
a--3-3-3-3-3-3-3-3---5-5-5-5-3-3-5-5------------------------------------|
e----------------------------1-1-3-3------------------------------------|

repeat the first part of the chorus


repeat the verse and all that

e-----------------------------------------------------------------------|
b-----------------------------------------------------------------------|
g-----------------------------------------------------------------------|
d-----5---5---5--5--5--10--10---10---10---10----------------------------|
a----33-33--33-33-33--88--88---88--88---88------------------------------|
e-----------------------------------------------------------------------|


e--------------------------------------------------------------------------|
b--------------------------------------------------------------------------|
g--x-5---------------------------------------------------------------------|
d--x-5--a lot--------------------------------------------------------------|
a--x-3---------------------------------------------------------------------|
e--------------------------------------------------------------------------|


chorus

intro

e-----------------------------------------------------------------------|
b-----------------------------------------------------------------------|
g---99-88--77-55-44444-5------------------------------------------------|
d-----------------------------------------------------------------------|
a-----------------------------------------------------------------------|
e-----------------------------------------------------------------------|

STELLAR KART FREAKIN ROCKS!!!!!!!!!!!!!!!!!!!!!!!!!

my name is really Dawson just to let u guys no!!

jr yes it true i posted a stellar kart song!!!!!!!!!!!!!!!!!!!!!!!!!!!!
Tap to rate this tab
# A B C D E F G H I J K L M N O P Q R S T U V W X Y Z