Song name
# A B C D E F G H I J K L M N O P Q R S T U V W X Y Z

Stellar Kart - I Wanna Live tab

-------------------------------------------------------------------------------
			     I Wanna Live - Stellar Kart
-------------------------------------------------------------------------------
Tabbed by: +Underdog
Email:

Tuning: Standard

INTRO

e|------------------------------|
B|-----------6666--88888888-----|
G|-----6666--5555--77777777-----|
D|-----6666--3333--55555555-----| x2
A|-----4444---------------------|
E|------------------------------|

VERSE

e|-------------9--------------------------------------|
B|----------9-------------------------9---6-----------|
G|-------6------------------------6-------------------|
D|----------------------------------------------------|  x2
A|----------------------------------------------------|
E|----------------------------------------------------|

e|-------------9--------9-----------------------------|
B|----------9-------9-----------------9---6-----------|
G|------6-------------------------6-------------------|
D|----------------------------------------------------|  x2
A|----------------------------------------------------|
E|----------------------------------------------------|

PRE-CHORUS

e|----------------------------------------------------|
B|-------------9-------11-------13-------14-----------|
G|-----6-------8-x8----10-x8----12-x8----13-x3--------|
D|-----6-x8----6-------8--------10-------11-----------|
A|-----4----------------------------------------------|
E|----------------------------------------------------|

CHORUS

e|----------------------------------------------------|
B|----------------------------------------------------|
G|----6-----------------------------------------------|
D|----6-x8-----6-------8--------4---------------------|  x2
A|----4--------6-x8----8-x8-----4-x8------------------|
E|-------------4-------6--------2---------------------|

e|----------------------------------------------------|
B|----------------------------------------------------|
G|----6-----------------------------------------------|
D|----6-x8-----8-------3--------4---------------------|
A|----4--------8-x8----3-x8-----4-x15-----------------|
E|-------------6-------1--------2---------------------|

INTRO

e|------------------------------|
B|-----------6666--88888888-----|
G|-----6666--5555--77777777-----|
D|-----6666--3333--55555555-----| x2
A|-----4444---------------------|
E|------------------------------|

VERSE

e|-------------9--------------------------------------|
B|----------9-------------------------9---6-----------|
G|------6-------------------------6-------------------|
D|----------------------------------------------------|  x2
A|----------------------------------------------------|
E|----------------------------------------------------|

e|-----------9-------9----9-------9-------------------|
B|--------------9-------------9--------9---6----------|
G|-------6--------------------------------------------|
D|----------------------------------------------------|  x2
A|----------------------------------------------------|
E|----------------------------------------------------|

PRE-CHORUS

e|----------------------------------------------------|
B|-------------9-------11-------13-------14-----------|
G|-----6-------8-x8----10-x8----12-x8----13-x3--------|
D|-----6-x8----6-------8--------10-------11-----------|
A|-----4----------------------------------------------|
E|----------------------------------------------------|

CHORUS

e|----------------------------------------------------|
B|----------------------------------------------------|
G|----6-----------------------------------------------|
D|----6-x8-----6-------8--------4---------------------|  x2
A|----4--------6-x8----8-x8-----4-x8------------------|
E|-------------4-------6--------2---------------------|

e|----------------------------------------------------|
B|----------------------------------------------------|
G|----6-----------------------------------------------|
D|----6-x8-----8-------3--------4---------------------|
A|----4--------8-x8----3-x8-----4-x15-----------------|
E|-------------6-------1--------2---------------------|

BREAK

e|-----------------------------------------------------------|
B|-----------------------------------------------------------|
G|-----------------------------------------------------------|
D|----3--------4-------6-------------3-------4-------6-------|
A|----3-x8-----4-x8----6-x16---------3-x8----4-x8----6-x11---|
E|----1--------2-------4-------------1-------2-------4-------|

CHORUS

e|----------------------------------------------------|
B|----------------------------------------------------|
G|----6-----------------------------------------------|
D|----6-x2-----6-------8--------4---------------------|
A|----4--------6-x8----8-x8-----4-x8------------------|
E|-------------4-------6--------2---------------------|

e|----------------------------------------------------|
B|----------------------------------------------------|
G|----6-----------------------------------------------|
D|----6-x8-----6-------8--------4---------------------|  x3
A|----4--------6-x8----8-x8-----4-x8------------------|
E|-------------4-------6--------2---------------------|

e|----------------------------------------------------|
B|----------------------------------------------------|
G|----6-----------------------------------------------|
D|----6-x8-----8-------3--------4---------------------|
A|----4--------8-x8----3-x8-----4-x15-----------------|
E|-------------6-------1--------2---------------------|

INTRO

e|------------------------------|
B|-----------6666--88888888-----|
G|-----6666--5555--77777777-----|
D|-----6666--3333--55555555-----| x4
A|-----4444---------------------|
E|------------------------------|

END

e|------------------------------|
B|-----7------------------------|
G|-----6-let ring---------------|
D|-----4------------------------|
A|------------------------------|
E|------------------------------|


LEAD GUITAR IN CHORUS

e|----------------------------------------|
B|------14-x2---13-x2---11-x2---9-x2------|
G|----------------------------------------|
D|----------------------------------------|
A|----------------------------------------|
E|----------------------------------------|



================================================================
Tap to rate this tab
 
# A B C D E F G H I J K L M N O P Q R S T U V W X Y Z