Song name
# A B C D E F G H I J K L M N O P Q R S T U V W X Y Z

Stellar Kart - Me And Jesus tab

Nobody had, to my knowledge, posted an intro for this song. Not sure if it's exactly how 
play it, but it all sounds correct. In some recordings, they are playing in B, and 
to drop Db, but it's pretty much the same thing


     E  E  E  E  E  E  E  E     E  E  E  E  E  E  E  E
E||--------------------------|--------------------------|
B||--------------------------|--------------------------|
G||--------5-----4-----5-----|--------5-----4-----5-----|
D||-----5-----5-----5-----5--|-----5-----5-----5-----5--|
A||--3-----------------------|--3-----------------------|
D||--------------------------|--------------------------|


  E  E  E  E  E  E  E  E     E  E  E  E  E  E  E  E
--------------------------|--------------------------|
--------------------------|--------------------------|
--------5-----4-----5-----|--------5-----4-----5-----|
-----5-----5-----5-----5--|-----5-----5-----5-----5--|
--3-----------------------|--3-----------------------|
--------------------------|--------------------------|


  E  E  E  E  E  E  E  E     E  E  E  E  E  E  E  E
--------------------------|--------------------------|
--------------------------|--------------------------|
--------5-----4-----5-----|--------5-----4-----5-----|
-----5-----5-----5-----5--|-----5-----5-----5-----5--|
--------------------------|--------------------------|
--3-----------------------|--3-----------------------|


  E  E  E  E  E  E  E  E     E  E  E  E  E  E  E  E
--------------------------|--------------------------|
--------------------------|--------------------------|
--------5-----4-----5-----|--------5-----4-----5-----|
-----5-----5-----5-----5--|-----5-----5-----5-----5--|
--0-----------------------|--------------------------|
--------------------------|--5-----------------------|


  E  E  E  E  E  E  E  E     E  E  E  E  E  E  E  E
--------------------------|--------------------------|
--------------------------|--------------------------|
--------5-----4-----5-----|--------5-----4-----5-----|
-----5-----5-----5-----5--|-----5-----5-----5-----5--|
--3-----------------------|--3-----------------------|
--------------------------|--------------------------|


  E  E  E  E  E  E  E  E     E  E  E  E  E  E  E  E
--------------------------|--------------------------|
--------------------------|--------------------------|
--------5-----4-----5-----|--------5-----4-----5-----|
-----5-----5-----5-----5--|-----5-----5-----5-----5--|
--------------------------|--------------------------|
--3-----------------------|--3-----------------------|


  E  E  E  E  E  E  E  E     E  E  E  E  E  E  E  E
--------------------------|--------------------------|
--------------------------|--------------------------|
--------5-----4-----5-----|--------5-----4-----5-----|
-----5-----5-----5-----5--|-----5-----5-----5-----5--|
--0-----------------------|--------------------------|
--------------------------|--5-----------------------|


  E  E  E  E  E  E  E  E     E  E  E  E  E  E  E  E
--------------------------|--------------------------||
--------------------------|--------------------------||
--------5-----4-----5-----|--------5-----4-----5-----||
-----5-----5-----5-----5--|-----5-----5-----5-----5--||
--3-----------------------|--3-----------------------||
--------------------------|--------------------------||
Tap to rate this tab
 
# A B C D E F G H I J K L M N O P Q R S T U V W X Y Z