Song name
# A B C D E F G H I J K L M N O P Q R S T U V W X Y Z

Stellar Kart - Livin On A Prayer tab

ive only found out the begining of this song but ill come up with the other part later

gtr 1 (distorted)
|---------------------------------|
|---------------------------------|
|---------------------------------|
|---------------------------------|
|-5-0-5-0-4-0-4-0-5-0-5-0-4-0-5-7-|
|---------------------------------|
|---------------------------------|
 PM_______________________________
gtr 2 (distorted)
|---------------------------------|
|---------------------------------|
|-7-------------------------------|
|-7-(hold)------------------------|
|-5-------------------------------|
|---------------------------------|

gtr 1 (distorted)
|---------------------------------|
|---------------------------------|
|-----------------------------4---|
|-5-0-5-0-4-0-4-0-5-0-5-0-4-0---7-|
|---------------------------------|
|---------------------------------|
 PM_______________________________
gtr 2 (distorted)
|---------------------------------|
|---------------------------------|
|-7-------------------------7-7---|
|-7-(hold)------------------7-5---|
|-5-------------------------5-5---|
|---------------------------------|

and there is the intro to livin on a prayer
Tap to rate this tab
 
# A B C D E F G H I J K L M N O P Q R S T U V W X Y Z