Song name
# A B C D E F G H I J K L M N O P Q R S T U V W X Y Z

Stellar Kart - We Shine tab

------------------------------------------------------------------
We Shine - Stellar Kart
------------------------------------------------------------------
Not all of this is 100% correct, but I might be doing a cover of
this with my youth band for Fine Arts so it doesn't have to be
exactly the same. If your playing this live, it should sound fine.
------------------------------------------------------------------
Tuning: Standard

Intro - Rhythm
e|---------------------------------------|
B|---------------------------------------|
G|---------------------------------------|
D|------------------------------3-3-3-3--|x8
A|--3-5-5--3-5-5--3-5-5--3-5-5-----------|
E|---------------------------------------|

Intro - Lead
e|----------------|Come in after the rhythm
B|----------------|plays it x4.
G|----------------|
D|--7-7-5---------|x4
A|--------8--3-5--|
E|----------------|

Verse - Lead
e|----------------|
B|----------------|
G|----------------|
D|--7-7-5---------|x8
A|--------8--3-5--|
E|----------------|

Verse - Rhythm
e|-----------|Come in after the lead
B|-----------|plays x4
G|-----------|
D|--0-0-0-0--|x16
A|-----------|
E|-----------|

Pre Chorus - Rhythm
e|-----------|
B|-----------|
G|--7-7-7-7--|
D|--x-x-x-x--|x16
A|--5-5-5-5--|
E|-----------|

Pre Chorus - Lead
e|-------------------------------------------------|
B|-------------------------------------------------|
G|--7-7-7-7-----3-3-3-3-----5-5-5-5----3-3-3-3-----|
D|--x-x-x-x-x4--x-x-x-x-x4--x-x-x-x-x4-x-x-x-x-x4--|
A|--5-5-5-5-----1-1-1-1-----3-3-3-3----1-1-1-1-----|
E|-------------------------------------------------|

Chorus - Lead & Rhythm
e|--------------------------------------------------------------|
B|--------------------------------------------------------------|
G|--7-7-7-7-----4-4-4-4-----------------------------------------|
D|--7-7-7-7-x4--4-4-4-4-x4--7-7-7-7-x4--5-5-5-5-x2--2-2-2-2-x2--|x2
A|--5-5-5-5-----2-2-2-2-----7-7-7-7-----5-5-5-5-----2-2-2-2-----|
E|--------------------------5-5-5-5-----3-3-3-3-----0-0-0-0-----|

Intro - Rhythm x1

Verse 2 - Lead
e|----------------|
B|----------------|
G|----------------|
D|--7-7-5---------|x8
A|--------8--3-5--|
E|----------------|

Verse 2 - Rhythm
e|-----------|
B|-----------|
G|-----------|
D|--0-0-0-0--|x32
A|-----------|
E|-----------|

Pre Chorus
Chorus x2

Bridge - Lead                          1st Ending          2nd Ending
e|----------------------------------|------------------|-------------------|
B|----------------------------------|------------------|-------------------|
G|----------------------------------|------------------|-------------------|
D|--12-12-12-12-x8--14-14-14-14-x4--|--15-15-15-15-x4--|--15-15-15-15-x32--|
A|----------------------------------|------------------|-------------------|
E|----------------------------------|------------------|-------------------|

Bridge - Rhythm
e|------------------------------|Come in after the lead
B|------------------------------|plays the 1st ending.
G|------------------------------|
D|--12-x4--8-x4--10-x4--12-x32--|
A|------------------------------|
E|------------------------------|

Chorus x2
Intro x4
Tap to rate this tab
 
# A B C D E F G H I J K L M N O P Q R S T U V W X Y Z