Stellar Kart - Something Holy tab

By:moses513

comments: This is my first tab so it's pretty close to it.


E|-------------------------------------------------------------------------|
B|-5-----5--4-----4--5-----5--5-----5--5-----5--4-----4--5-----5--5-----5--|
G|----4--------4--------4--------4--------4--------4--------4--------4-----|
D|-------------------------------------------------------------------------|
A|-------------------------------------------------------------------------|
E|-------------------------------------------------------------------------|


E|----------------------------------------------------------7--4-----------|
B|-5-----5--4-----4--5-----5--5-----5--5-----5--4-----4--5-----------------|
G|----4--------4--------4--------4--------4--------4-----------------------|
D|-------------------------------------------------------------------------|
A|-------------------------------------------------------------------------|
E|-------------------------------------------------------------------------|
Tap to rate this tab
 
# A B C D E F G H I J K L M N O P Q R S T U V W X Y Z