Stellar Kart - Activate tab

-----------------------------------------------------------------------------
			     Activate  Stellar Kart
Solo
-----------------------------------------------------------------------------
Tabbed by: Payton

Tip: Make sure to check out the song to get the timing right!

Tuning: Standard (e,B,G,D,A,E)

e|---------------------------------------------------------------------------|
B|---------------------------------------------------------------------------|
G|----------------------------13-13-13-11-----------16-16-16-14----14--------|
D|--13-13-13-11----11----------------------13-14----------------16-----------|
A|--------------14-----------------------------------------------------------|
E|---------------------------------------------------------------------------|

e|---------------------------------------------------------------------------|
B|--------17---------17---------16-17-----17--------17-16--------------------|
G|--16-16-16---16-16-16---16-16-16-16--16-16---16-16-------16----------------|
D|---------------------------------------------------------------------------|
A|---------------------------------------------------------------------------|
E|---------------------------------------------------------------------------|

God Bless You!
Tap to rate this tab
 
# A B C D E F G H I J K L M N O P Q R S T U V W X Y Z