Song name
# A B C D E F G H I J K L M N O P Q R S T U V W X Y Z

Stellar Kart - Before And After tab

-------------------------------------------------------------------------------
         Before and After (intro picking pattern) - Stellar Kart
-------------------------------------------------------------------------------
Tabbed by: NinjaBushidoo

Tuning: standard

e|--------|---------|---------|---------|
B|-----0-1|-----1-0-|---------|-----3---|
G|--------|---------|-----4-2-|---2---2-|
D|--------|---2-----|---0-----|-0-------|
A|---2----|-3-------|---------|---------|
E|-0------|---------|-3-------|---------|


************************************
Tap to rate this tab
# A B C D E F G H I J K L M N O P Q R S T U V W X Y Z