Song name
# A B C D E F G H I J K L M N O P Q R S T U V W X Y Z

Stellar Kart - Spending Time With You tab

Help us improve GuitareTab! Take a short survey!
Spending time with you-Stellar Kart

Tabed by Joshua Demaray AKA Big D~Ray
if you have n e questions you could e-mail me at www.jedemaray@yahoo.com
i hope to get more Stellar Kart songs done in the future

tuning standard
~ Let ring
* Palm muted
\ slide

Intro:

e----------------------------------------------------------|
B----------------------------------------------------------|
G-4444444444444-------------------------------------6-8-6--| X2
D-4444444444444-4444444444444-6666666666666-2222222-6-8-6--|
A-2222222222222-4444444444444-6666666666666-2222222-4-6-4--|
E---------------2222222222222-4444444444444-0000000--------|
   ******** **   ******** **   ******** **   ******
(First Guitar)
e------------------|
B-5-4---7-5-4---4~-|
G-----4---------4~-|Let ring
D---------------2~-|
A------------------|
E------------------|

First Verse

(bass guitar) plays this while the first guitar rings out loud
e----------------------------------|
B----------------------------------|
G----------------------------------|
D----------------------------------|
A-2-2-2-2---------2-2-2-2----------|
E---------0-0-0-0---------2-2-2-2--|
played through once then add the first guitar

(Guitar 1)
e-----------------------------------------------------------------|
B-7-0-5-0-4-0-4-0-5-0-4-5-4-2-0---7-0-5-0-4-0-4-0-2-0-2-0-2-4-2-0-|
G-----------------------------------------------------------------|
D-----------------------------------------------------------------|
A-----------------------------------------------------------------|
E-----------------------------------------------------------------|
  * * * * * * * * * * * * * * *   * * * * * * * * * * * * * * * * 

(Guitar 2)
e----------------------------------|
B----------------------------------|
G-44444444--------44444444---------|
D-44444444222222224444444444444444-|
A-22222222222222222222222244444444-|
E---------00000000--------22222222-|
  ********************************

Pre Chorus

(Guitar 1)
e----------------------------------|
B-2-4-0-2-4-5-4--2-0-2-4-0-2-4-5\7-|
G----------------------------------|
D----------------------------------|
A----------------------------------|
E----------------------------------|

(Guitar 2)
e--------------------------------|
B--------------------------------|
G--------------------------------|
D-6-6-6-4-4-2~--6-6-6-4-4-2~--4--|
A-6-6-6-4-4-2~--6-6-6-4-4-2~--4--|
E-4-4-4-2-2-0~--4-4-4-2-2-0~--2--|

Chorus

(Both Guitars)
e----------------------------------|--------
B----------------------------------|--------
G-4444444466666666-----------------|----4~--
D-44444444666666666666666622224444-|X2--4~--
A-22222222444444446666666622224444-|----2~--
E-----------------4444444400002222-|--------

Second Verse

(bass guitar) plays this while the first guitar rings out loud
e----------------------------------|
B----------------------------------|
G----------------------------------|
D----------------------------------|
A-2-2-2-2---------2-2-2-2----------|
E---------0-0-0-0---------2-2-2-2--|
played through once then add the first guitar

(Guitar 1)
e-----------------------------------------------------------------|
B-7-0-5-0-4-0-4-0-5-0-4-5-4-2-0---7-0-5-0-4-0-4-0-2-0-2-0-2-4-2-0-|
G-----------------------------------------------------------------|
D-----------------------------------------------------------------|
A-----------------------------------------------------------------|
E-----------------------------------------------------------------|
  * * * * * * * * * * * * * * *   * * * * * * * * * * * * * * * * 

(Guitar 2)
e----------------------------------|
B----------------------------------|
G-44444444--------44444444---------|
D-44444444222222224444444444444444-|
A-22222222222222222222222244444444-|
E---------00000000--------22222222-|
  ********************************

Pre Chorus

(Guitar 1)
e----------------------------------|
B-2-4-0-2-4-5-4--2-0-2-4-0-2-4-5\7-|
G----------------------------------|
D----------------------------------|
A----------------------------------|
E----------------------------------|

(Guitar 2)
e--------------------------------|
B--------------------------------|
G--------------------------------|
D-6-6-6-4-4-2~--6-6-6-4-4-2~--4--|
A-6-6-6-4-4-2~--6-6-6-4-4-2~--4--|
E-4-4-4-2-2-0~--4-4-4-2-2-0~--2--|

Chorus

(Both Guitars)
e----------------------------------|--------
B----------------------------------|--------
G-4444444466666666-----------------|----4~--
D-44444444666666666666666622224444-|X2--4~--
A-22222222444444446666666622224444-|----2~--
E-----------------4444444400002222-|--------

Bridge

e----------------------------------|
B----------------------------------|
G----------------------------------|
D--1-2-1-1-1-2-1-1-1-2-1-1-1-2-2-2-| X2
A-2-2-2-2-4-4-4-4------------------|
E-----------------4-4-4-4-0-0-2-2--|

Pre chorus

(Guitar 1)
e----------------------------------|
B----------------------------------|
G-4444444466666666-----------------|
D-44444444666666666666666622224444-|
A-22222222444444446666666622224444-|
E-----------------4444444400002222-|
  ********************************
(Both Guitars)
e---------------------------|
B---------------------------|
G-4444444466666666----------|
D-444444446666666666666666--|
A-222222224444444466666666--|
E-----------------44444444--|
  ************************

Chorus

(Both Guitars)
e----------------------------------|
B----------------------------------|
G-4444444466666666-----------------|
D-44444444666666666666666622224444-| X2
A-22222222444444446666666622224444-|
E-----------------4444444400002222-|

Outro

e----------------------------------------------------------|
B----------------------------------------------------------|
G-4444444444444-------------------------------------6-8-6--| X2
D-4444444444444-4444444444444-6666666666666-2222222-6-8-6--|
A-2222222222222-4444444444444-6666666666666-2222222-4-6-4--|
E---------------2222222222222-4444444444444-0000000--------|
   ******** **   ******** **   ******** **   ******

e------------------|
B-5-4---7-5-4---4~-|
G-----4---------4~-|Let ring
D---------------2~-|
A------------------|
E------------------|

find more info on Stellar Kart at www.stellarkart.com
Related for Spending Time With You tab