Song name
# A B C D E F G H I J K L M N O P Q R S T U V W X Y Z

Stellar Kart - Wishes And Dreams tab

Band: Stellar Kart
Album: We Can't Stand Sitting Down
Song: Wishes And Dreams

tabbed by david

An amazing song that deserves a tab...

Tuning: Standard

Intro 
e|--------------------------------------------------------------------|
B|--------------------------------------------------------------------|
G|--------------------------------------------------------------------| x 2
D|-----6-----6-----6-----6-----6---------6-----6-----6-----6-----6----|  
A|-4-4---4-4---4-4---4-4---4-4---4---3-3---3-3---3-3---3-3---3-3---3--|
E|--------------------------------------------------------------------|

Verse 
e|-------------------------------------------------------------------|
B|-------------------------------------------------------------------|
G|-------------------------------------------------------------------|
D|-----6-----6-----6-----6-----6--------6-----6-----6-----6-----6----|
A|-4-4---4-4---4-4---4-4---4-4---4-----------------------------------|
E|----------------------------------4-4---4-4---4-4---4-4---4-4---4--|

Verse continued...
e|---------------------------------------------------------------------|
B|---------------------------------------------------------------------|
G|----1-----1-----1-----1-----1----------------------------------------|
D|---(6)---(6)---(6)---(6)---(6)--------6-----6-----6-----6-----6------|
A|---------------------------------------------------------------------|
E|-2-2---2-2---2-2---2-2---2-2--2----4-4---4-4---4-4---4-4---4-4---4---|

then...

Intro 

Verse/Verse continued

Pre-Chorus
e|-x-x-|-------------------------|
B|-x-x-|-------------------------|
G|-x-x-|--6-6-6-6----8-8-8-8-----|
D|-x-x-|--4-6-6-6----8-8-8-8-----|
A|-x-x-|--4-4-4-4----6-6-6-6-----|
E|-x-x-|-------------------------|

Chorus
e|-x-|--------------------------------------|
B|-x-|--------------------------------------|
G|-x-|-6-6-6-6--5-5-5-5--3-3-3-3--5-5-5-5---|
D|-x-|-6-6-6-6--5-5-5-5--3-3-3-3--5-5-5-5---|
A|-x-|-4-4-4-4--3-3-3-3--1-1-1-1--3-3-3-3---| then
E|-x-|--------------------------------------|
           I'll be the...made you sad
       
e|----------------------------------------|
B|----------------------------------------|
G|-6-6-6-6--5-5-5-5--8-8-8-8--6-6-6-6---6-|
D|-6-6-6-6--5-5-5-5--8-8-8-8--6-6-6-6---6-|
A|-4-4-4-4--3-3-3-3--6-6-6-6--4-4-4-4---4-|
E|----------------------------------------|
          Me and you...wishes and dreams

Intro 

Verse/Verse Continued

Pre-Chorus
e|-x-x-|-------------------------|
B|-x-x-|-------------------------|
G|-x-x-|--6-6-6-6----5-5-5-5-----|
D|-x-x-|--4-6-6-6----5-5-5-5-----|
A|-x-x-|--4-4-4-4----3-3-3-3-----|
E|-x-x-|-------------------------|

Chorus

Solo type thing
e|--------------------------------------------------------------11b-11-11-|
B|-6---10~--10-10-10---6---4~--4-4-4---6----10~--10-10-10---6-------------|
G|---6-------------------6---------------6--------------------6-----------|
D|------------------------------------------------------------------------|
A|------------------------------------------------------------------------|
E|------------------------------------------------------------------------|

Bridge (guitar 2) P.M.   then guitar 1 comes in... P.M.
e|-----------------------------------------------------------------|
B|-----------------------------------------------------------------|
G|---6-6-6-6-6-6-6-6--------6----------8-----------6~--------------|
D|----6-6-6-6-6-6-6-6-------6- x 16----8-x 16------6~--------------|
A|--------------------------4----------6-----------4~--------------|
E|-----------------------------------------------------------------|

Chorus x 2

Intro

End On
e|----|
A|----|
D|-6--|
G|-6--|
B|-4--|
E|----|

There you go. This is my first tab so go easy. It may not be 100% correct but it sure sounds right.


===============================================================================
Tap to rate this tab
# A B C D E F G H I J K L M N O P Q R S T U V W X Y Z