Song name
# A B C D E F G H I J K L M N O P Q R S T U V W X Y Z

Stellar Road - Spin Me tab

Intro/Verse
e|-----------------------------------------------------------|
B|-----------------------------------------------------------|
G|-----6-----------------9-9-9-9-6-7-7-----6-9-9-9-9/7 7 7/6-|
D|-------7-9-9-6-7-6---6-----------------7-------------------|
A|-7/9---------------7-----------------5---------------------|
E|-----------------------------------------------------------|

e|------------------------------------------------------|
B|------------------------------------------------------|
G|---6-6-6---4-4-4--------------------------------------|
D|------------------------------------------------------|
A|-4-------2--------------------------------------------|
E|------------------------------------------------------|

Chorus

e|------------------------------------------------------|
B|------------------------------------------------------|
G|-----2---7---6----------------------------------------|
D|-4---2---7---6----------------------------------------|
A|-4---1---5---4----------------------------------------|
E|-2---0------------------------------------------------|

Pretty sure that's it.  Should be about 95% correct.  Great song from a great 
band.  Enjoy.
Tap to rate this tab
# A B C D E F G H I J K L M N O P Q R S T U V W X Y Z