Song name
# A B C D E F G H I J K L M N O P Q R S T U V W X Y Z

Stellastarr - Stay Entertained tab

Stellastarr*:Stay Entertained
Tabbed by zto101
album: Harmonies of the Haunted

Ok guys here's the deal this is my very first tab on ultimate-guitar. So don't go hard
me. All good comments are welcome. I tried my best and this is what i've got. So enjoy.
check out my youtube and subscribe. www.youtube.com/zto101 I did a cover on stellastarr* 
entertained. Check that video out on my channel if you want.


For the intro repeat this part whenever the verses come up. Listen to the song to get a
understanding and follow the tab.

Intro
e-------------------------------------------------------------------|
B-------------------------------------------------------------------|
G-------------------------------------------------------------------|
D--------------------10---10---10---10---10---10----12----12----12--|
A---10---10---10---8----8----8----7----7----7----10----10----10-----|
E-8----8----8-------------------------------------------------------|
<-------------repeat this part througout the verses-----------------|


Pre-chorus
This is the part where he sings staaay entertained, staaay entertained blah blah blah
it opens into the chorus. I suggest for this part you do an alternate strumming pattern.
just up and down sixteenth-note strokes.

e--------------------------------------------------------------------------|
B--------------------------------------------------------------------------|
G--------------------------9-9-9-9-9-9-9-9--10-----------------------------|
D--10-10-10-10-10-10-10-10-9-9-9-9-9-9-9-9--10-<-play this power chord 1---|6x
A--10-10-10-10-10-10-10-10-7-7-7-7-7-7-7-7--8------------------------------|
E--8--8--8--8--8--8--8--8--------------------------------------------------|
<--------------repeat this part 2x before opening of chorus----------------|

This is the continuing part of the pre-chorus.
e----------------------------------------------------------------------------|
B----------------------------------------------------------------------------|
G--------------------9---9---9---9---10--10--10--10--10-10-10-10-10-10-10-10-|
D-10---10---10---10--9---9---9---9---10--10--10--10--10-10-10-10-10-10-10-10-|
A-10---10---10---10--7---7---7---7---8---8---8---8---8--8--8--8--8--8--8--8--|
E-8----8----8----8-----------------------------------------------------------|
<-------play these power chords broken up------------------------------------|


For the chorus I suggest you do an alternate strumming like the pre-chorus. 16th notes i
Up and down strokes but not super fast.

Chorus
e-------------------------------------------------------------------------|
B-------------------------------------------------------------------------|
G-------------------------------------------------------------------------|
D-5-5-5-5-5-5-5-5-3-3-3-3-3-3-3-3-10-10-10-10-10-10-10-10-3-3-3-3-3-3-3-3-|
A-5-5-5-5-5-5-5-5-3-3-3-3-3-3-3-3-10-10-10-10-10-10-10-10-3-3-3-3-3-3-3-3-|
E-7-7-7-7-7-7-7-7-1-1-1-1-1-1-1-1-8--8--8--8--8--8--8--8--5-5-5-5-5-5-5-5-|
<-----------------------------Repeat 2x-----------------------------------|

(Near the end of the song/Chorus)
e---------------------------------------------|
B---------------------------------------------|
G---------------------------------------------|
D--5-5----------3-3-----------10-10---------5-|
A--5-5----------3-3-----------10-10---------5-|
E--7-7----------1-1-----------8--8----------3-|
Tap to rate this tab
# A B C D E F G H I J K L M N O P Q R S T U V W X Y Z