Song name
# A B C D E F G H I J K L M N O P Q R S T U V W X Y Z

Stellastarr - Lost In Time tab

I've had requests for this tab on my cover of this song on Youtube. It's taking a while
type up, so what I'm going to do is to upload what I have so far, and then add bits to
as and when I have them. All the chords are there now, it's just the lead parts that are 
should hopefully have them done pretty soon.

Standard tuning.

Rythm parts

Intro

Bb5 | Eb5 | Bb5 | Eb5 |
Bb5 | Eb5 | Bb5 | Eb5 |

Verse

Bb5 | Eb5 | Bb5 | Eb5 | G5        | F5        |
Bb5 | Eb5 | Bb5 | Eb5 | G5        | F5        |

Lead break

Bb5 | Eb5 | Bb5 | Eb5 |

Verse

Bb5 | Eb5 | Bb5 | Eb5 | G5        | F5        |

Chorus

Bb5 | Eb5 | Bb5 | Eb5 | G5        | F5        |

Lead break/solo

Bb5 | Eb5 | Bb5 | Eb5 |
Bb5 | Eb5 | Bb5 | Eb5 |

Pre-chorus

G5        | F5        | G5        | F5        |

Chorus

Bb5 | Eb5 | Bb5 | Eb5 | G5        | F5        |

Lead parts

Main lead riff, repeated at various points throughout the song

e |-20-20-20-20-20-20-20-20-|-20----------------------|-20-20-20-20-20-20-20-20-|-
B |-------------------------|----18-18-18-18-18-18-18-|-------------------------|-
G |-------------------------|-------------------------|-------------------------|-
D |-------------------------|-------------------------|-------------------------|-
A |-------------------------|-------------------------|-------------------------|-
E |-------------------------|-------------------------|-------------------------|-

20----------------------|
---18-18-18-18-18-18-18-|
------------------------|
------------------------|
------------------------|
------------------------|

e |-20-20-20-20-20-20-20-20-|-20-------------22-22-22-|-22-22-22-22-------------|-
B |-------------------------|----18-18-18-18----------|-------------20-20-20-20-|-
G |-------------------------|-------------------------|-------------------------|-
D |-------------------------|-------------------------|-------------------------|-
A |-------------------------|-------------------------|-------------------------|-
E |-------------------------|-------------------------|-------------------------|-

20-20-20-20-20-20-20-20-|
------------------------|
------------------------|
------------------------|
------------------------|
------------------------|
Tap to rate this tab
 
# A B C D E F G H I J K L M N O P Q R S T U V W X Y Z