Guitaretab - guitar tabs
Song name
# A B C D E F G H I J K L M N O P Q R S T U V W X Y Z

Stellastarr - Sweet Troubled Soul tab

---------------------------------------------------------------------------
		       SWEET TROUBLED SOUL- Stellastarr*
---------------------------------------------------------------------------
Tabbed by: Addis Ababa
Email: senatornorm_coleman@yahoo.com

Tuning: Standard

This is a great song. Thereís some palm muting throughout the piece, but
I didnít put it on there to prevent from jumbling up the page. Iím sure you
can figure out where to mute just by listening to the song, itís pretty easy.

(0:00)
e|-----2-2-------------2-2-----------------------------------------|
B|-------------3-3-------------3-3-----3---5---3-------3---5-3-2-3-|
G|-4-4-----4-4-----4-4-----4-4-------------------------------------| x4
D|---------------------------------0-0---0---0---0-0-0---0---------|
A|-----------------------------------------------------------------|
E|-----------------------------------------------------------------|

(0:28)
e|-0h2-2-2-2-2-0-0-0-----------------|
B|-------------------3-3-3-3-3-2-2-2-|
G|-----------------------------------| x2
D|-----------------------------------|
A|-----------------------------------|
E|-----------------------------------|

(0:35)
e|-----------------|
B|-0-0-0---0-0-3---|
G|-------2-------0-|
D|-----------------|
A|-----------------|
E|-----------------|

(0:38)
e|-----2-2-------------2-2-----------------------------------------|
B|-------------3-3-------------3-3-----3---5---3-------3---5-3-2-3-|
G|-4-4-----4-4-----4-4-----4-4-------------------------------------| x3
D|---------------------------------0-0---0---0---0-0-0---0---------|
A|-----------------------------------------------------------------|
E|-----------------------------------------------------------------|

(0:59)
e|-0h2-2-2-2-2-2-0-0-0-----------------|
B|---------------------3-3-3-3-3-2-2-2-|
G|-------------------------------------| x2
D|-------------------------------------|
A|-------------------------------------|
E|-------------------------------------|

(1:07)
e|-----------------|
B|-0-0-0---0-0-3---|
G|-------2-------0-|
D|-----------------|
A|-----------------|
E|-----------------|

(1:10)
e|------------------------------------------------------------------|
B|---0-0---0-0-3----------------------------------------------------|
G|-------2-------0-0-0-0---------------------2----------------------| x3
D|-4---------------------4-4-4-0-2-4-4-2-4-4---0-0-0-0--------------|
A|-----------------------------------------------------4-4-4-0-0-0-0|
E|------------------------------------------------------------------|

This part isnít 100% correct but it sounds fine. Correct me if you want.
(1:32)
e|-----------------------------------------------------------------|
B|-----------------------------------------------------------------|
G|-----------------------------------------------------------------| x3
D|-0-0-0-0-0-0-0-0-0-0-0-0-0-0-0-0-0-0-0-0-0-0-0-0-0-0-0-0-0-0-0-0-|
A|-5-5-5-5-5-5-5-5-5-5-5-5-5-5-2-2-2-2-2-2-2-2-2-2-4-4-4-4-4-4-4-4-|
E|-5-5-5-5-5-5-5-5-5-5-5-5-5-5-3-3-3-3-3-3-3-3-3-3-5-5-5-5-5-5-5-5-|

(1:53)
e|-----------------------------------------------------------------|
B|-----------------------------------------------------------------|
G|-----------------------------------------------------------------|
D|-0-0-0-0-0-0-0-0-0-0-0-0-0-0-0-0-0-0-0-0-0-0-0-0-0-0-0-0-0-0-0-0-|
A|-2-2-2-2-2-2-2-2-2-2-2-2-2-2-2-2-4-4-4-4-4-4-4-4-4-4-4-4-4-4-4-4-|
E|-3-3-3-3-3-3-3-3-3-3-3-3-3-3-3-3-5-5-5-5-5-5-5-5-5-5-5-5-5-5-5-5-|

(2:00)
e|-----2-2-------------2-2-----------------------------------------|
B|-------------3-3-------------3-3-----3---5---3-------3---5-3-2-3-|
G|-4-4-----4-4-----4-4-----4-4-------------------------------------| x3
D|---------------------------------0-0---0---0---0-0-0---0---------|
A|-----------------------------------------------------------------|
E|-----------------------------------------------------------------|

You may continue with the main riff, but if not you can add the solo before the second 
starts.

Solo (2:07)
e|-----------------------------------|
B|-12----14----15----14--12-14-12----|
G|--------------------------------12-| continued on next measure >
D|-----------------------------------|
A|-----------------------------------|
E|-----------------------------------|

e-------------------------------------------------|
B-------------------------------------------------|
G-11-11-11-11-11-11-11-11-12-12-12-11-11-11-14-12-|
D-------------------------------------------------|
A-------------------------------------------------|
E-------------------------------------------------|

e|----------------------------------12--|
B|-12----14----15----14----12-14-15-----|
G|--------------------------------------| continued on next measure >
D|--------------------------------------|
A|--------------------------------------|
E|--------------------------------------|
[ Tab from: http://www.guitaretab.com/s/stellastarr/69992.html ]
e-14-14-14-14-14-14-14-14-12-12-12----------------|
B----------------------------------14-14-14-14-14-|
G-------------------------------------------------| end solo
D-------------------------------------------------|
A-------------------------------------------------|
E-------------------------------------------------|

(2:21)
e|-0h2-2-2-2-2-2-0-0-0-----------------|
B|---------------------3-3-3-3-3-2-2-2-|
G|-------------------------------------| x2
D|-------------------------------------|
A|-------------------------------------|
E|-------------------------------------|

(2:28)
e|-----------------------------------------------------------------|
B|-0-0-0---0-0-3---------------------------------------------------|
G|-------2-------0-0-0-0-------------------------------------------|
D|-----------------------4-4-4-4-----0-------0------0-----0--------|
A|-------------------------------2-2-2-2-2-2-2-2-4-4-4-4-4-4-4-----|
E|-----------------------------------------------------------------|

(2:35)
e|---------------------------------------------------------------------|
B|---------------------------------------------------------------------|
G|---------------------------------------------------------------------| x3
D|-0-0-0-0-0-0-0-0-0-0-0-0-0-0-0-0-0-0-0-0-0-0-0-0-0-0-0-0-0-0-0-0-0-0-|
A|-5-5-5-5-5-5-5-5-5-5-5-5-5-5-5-5-2-2-2-2-2-2-2-2-4-4-4-4-4-4-4-4-4-4-|
E|-5-5-5-5-5-5-5-5-5-5-5-5-5-5-5-5-3-3-3-3-3-3-3-3-5-5-5-5-5-5-5-5-3-3-|

e|-------------------------------------------------|
B|-------------------------------------------------|
G|-------------------------------------------------|
D|-0-0-0-0-0-0-0-0-0-0-0-0-0-0-0-0-0-0-0-0-0-0-0-0-|
A|-2-2-2-2-2-2-2-2-2-2-2-2-2-2-2-2-4-4-4-4-4-4-4-4-|
E|-3-3-3-3-3-3-3-3-3-3-3-3-3-3-3-3-5-5-5-5-5-5-5-5-|

(3:03)
e|----------------------------------------------------------------------|
B|---0-0-0---0-0-3------------------------------------------------------|
G|---------2-------0-0-0-0-----------------------2----------------------| x2
D|-4-----------------------4-4-4-4-0-2-4-4-2-4-4---0-0-0-0--------------|
A|---------------------------------------------------------4-4-4-0-2-4-4|
E|----------------------------------------------------------------------|

(3:18)
e|-0h2-2-2-2-0-0-0-0-------------------------------------------------|
B|-------------------3-3-3-3-2-2-2-2h3-2p0---0-0-0-2h3-2-------------|
G|-------------------------------------------------------2---2-2-2-2-|
D|-------------------------------------------------------------------|
A|-------------------------------------------------------------------|
E|-------------------------------------------------------------------|

(3:25)
e|-0h2-2-2-2-0-0-5---0-----------------------------------------------|
B|-----------------------3---3-3-3-2h3 2p0---0-0-0-2h3-2-------------|
G|-------------------------------------------------------2---2-2-2-2-|
D|-------------------------------------------------------------------|
A|-------------------------------------------------------------------|
E|-------------------------------------------------------------------|

(3:32)
e|-0h2-2-2-2-0-0-5---0-------------5-------------5-------------|
B|-----------------------3---2-2-2---3--2--3-3-3---3--2--3-3-3-|
G|-------------------------------------------------------------|
D|-------------------------------------------------------------|
A|-------------------------------------------------------------|
E|-------------------------------------------------------------|

e|-5-------------|
B|---3--2--3-3-3-|
G|---------------| x6
D|---------------|
A|---------------|
E|---------------|

(3:50)
e|---------------------------------|
B|-----3---5---3-------3---5-3-2-3-|
G|---------------------------------|
D|-0-0---0---0---0-0-0---0---------|
A|---------------------------------|
E|---------------------------------|

e|-----2-2-------------2-2------------|
B|-------------3-3-------------3-3----|
G|-4-4-----4-4-----4-4-----4-4-----4\-|
D|------------------------------------|
A|------------------------------------|
E|------------------------------------|

| /  slide up
| \  slide down
| h  hammer-on
| p  pull-off
| ~  vibrato
| +  harmonic
| x  Mute note

I'm a jealous man
i can't relate
she's a doe-eyed girl
with no complaints
but there's another side
that I'm trying to crack
if you open your mind
and let me take a stab
at the secrets that you know
sweet troubled soul

she's a southern tramp
all dressed in black
a florescent tack
sweet heart attack
but there's another side
that I'm trying to crack
if you open your mind
and let me take a stab
at the secrets that you know
sweet troubled soul

I want to suffer in your arms
and when you're naked in the dark
i want to see your face
in the reflection of my bedroom stereo
we'll take it slow
sweet troubled soul

but there's another side
that I'm trying to crack
if you open your mind
and let me take a stab
at the secrets that you know
just let it go

I want to suffer in your arms
and when you're naked in the dark
i want to see your face
in the reflection of my bedroom stereo
we'll take it slow
sweet troubled soul
oh sweet troubled soul
===========================================================================
Related for Sweet Troubled Soul tab