Song name
# A B C D E F G H I J K L M N O P Q R S T U V W X Y Z

Stemage - Calling The Kettle tab

Help us improve GuitareTab! Take a short survey!
After a few seconds of an octaved D note, you get this:

INTRO:

E|------------------------------------------------------------------------|
B|------------------------------------------------------------------------|
G|---2--2--------5-/-7-7--7--7-----------------7--7-------5--5--5-5--5--5-|
D|---0--0--------5-/-7-7--7--7-----------------7--7-------5--5--5-5--5--5-|
A|---0--0--------3-/-5-5--X--X-----------------X--X-------X--X--X-X--X--X-|
D|---0--0-----------------5--5------0-5-3-0----7--7--7//--4--4--4-5--5--5-|

Repeat a few times, but carry out the last few notes.

After the intro, you get this:


VERSE:
|-------------------------3====-----------------------------2==|
|-------------------------3====-----------------------------2==|
|--12-11-7====------------4====---------7====------7==------0==|
|----------------------5--5====----5/9--9====-9--7-7==-9/7--4==|
|--10-9--5====-------5-----------------------------------------|
|--------------------------------------------------------------|



Than do that again, but instead of the first part (with the octaves), use this:
|--------2===--|
|--------2===--|
|--------0===--|
|--------4===--|
|--4--5--------|
|--------------|


Than the Chorus:

|-------------------------------------------------------------------|
|-------------------------------------------------------------------|
|--4--4--4-4--4-4--2--2--2-2--2-2---5--5--5-5--5-5--4--4--4-4--4-4--|
|--0--0--0-0--0-0--0--0--0-0--0-0---0--0--0-0--0-0--0--0--0-0--0-0--|
|--0--0--0-0--0-0--0--0--0-0--0-0---0--0--0-0--0-0--0--0--0-0--0-0--|
|--0--0--0-0--0-0--0--0--0-0--0-0---0--0--0-0--0-0--0--0--0-0--0-0--|

|------------------------------------------------|
|------------------------------------------------|
|6-6-6-6-6-6-7-7-7-7-7-7---12-11-7==--12-11-5==--|
|------------------------------------------------|
|--------------------------10-9--5==--10-9--3==--|
|4-4-4-4-4-4-5-5-5-5-5-5-------------------------|


Than, after that last part, repeat the first part of the last line again, than do this:
|-------------------------------------------------|
|-------------------------------------------------|
|-------------------------------------------------|
|-------------------------------------------------|
|----------------------------------------------5-7|
|--12-12^0--12-12^0--12-12^0--12-12^0--0--5-7-----|


Repeat that, than do the intro again...



I'm missing a few parts after all of this, because the bridge is a bit hard to decipher.

Hope this helped, there's hardly any Stemage songs up here, so I decided to contribute.
Related for Calling The Kettle tab