Song name
# A B C D E F G H I J K L M N O P Q R S T U V W X Y Z

Stemage - Anosmium tab

Help us improve GuitareTab! Take a short survey!
#----------------------------------PLEASE NOTE---------------------------------#
#This file is the author's own work and represents their interpretation of the #
#song. You may only use this file for private study, scholarship, or research. #
#------------------------------------------------------------------------------#

ANOSMIUM
As recorded by Stemage
(From the 2006 Album STRATI)


Transcribed by Joe Studer

 Words and Music by Grant Henry
Arranged by Stemage
 

Gtr I (E A D G B E) - 'Untitled'


 Intro
  Q=200
 4/4
  Gtr I
  Q  Q  Q  E  E      E  E  E  E  E  E E  E    Q  E Q  Q  E   Q  E Q  E Q
|---------------||-------------------------|---------------|---------------|
|---------------||o------------------------|---------------|---------------|
|---------------||----------------------11-|-11--7-7--7--4-|-4--7-7--6-6---|
|------------11-||--11-11-12-11-14-11----9-|--9--5-5--5--2-|-2--5-5--7-7---|
|-------------0-||o--0--0--0--0--0--0------|---------------|---------------|
|---------------||-------------------------|---------------|---------------|


  1.                 2.
  E E E E Q  E  E     E E E E Q  E E   E E Q  E Q   E
|------------------||----------------|----------------|
|-----------------o||----------------|----------------|
|---4---2-2--------||---4---2-2----6-|---4-4----2-----|
|---5---2-2----11--||---5---2-2----7-|---5-5----2--11-|
|---------------0-o||----------------|--------------0-|
|------------------||----------------|----------------|


   E  E  E  E  E  E E  E    Q  E Q  Q  E   Q  E Q  E Q    E E E E Q  E  E
|------------------------|---------------|--------------|-----------------|
|------------------------|---------------|--------------|-----------------|
|---------------------11-|-11--7-7--7--4-|-4--7-7--6-6--|---4---2-2-------|
|-11-11-12-11-14-11----9-|--9--5-5--5--2-|-2--5-5--7-7--|---5---2-2----11-|
|--0--0--0--0--0--0------|---------------|--------------|---------------0-|
|------------------------|---------------|--------------|-----------------|


   E  E  E  E  E  E E  E    Q  E Q  Q  E   Q  E Q  E Q    +W
|------------------------|---------------|--------------|--------||
|------------------------|---------------|--------------|--------||
|---------------------11-|-11--7-7--7--4-|-4--7-7--6-6--|-(6)----||
|-11-11-12-11-14-11----9-|--9--5-5--5--2-|-2--5-5--7-7--|-(7)----||
|--0--0--0--0--0--0------|---------------|--------------|--------||
|------------------------|---------------|--------------|--------||


   Verse
    E E E E E E E E   E E E E E E Q     E E E E E E E E   E E E E E E Q
||------------------|-----------------|-----------------|------------------|
||o-----------------|-----------------|-----------------|------------------|
||------------------|-----------------|-----------------|------------------|
||------7-----------|-----------------|-----5-----------|------------------|
||o-----------7-----|-4-----5-----7\--|-----------5-----|-2-----3-----5/---|
||--0-5---0-5---0-5-|---0-5---0-5-----|-0-3---0-3---0-3-|---0-3---0-3------|


  E E E E E E E E   E E E E E E Q     E E E E E E E E   E E E E E E Q
|-----------------|-----------------|-----------------|-----------------|
|-----------------|-----------------|-----------------|-----------------|
|-----------------|-----------------|-----------------|-----------------|
|-----7-----------|-----------------|-----5-----------|-----------------|
|-----------7-----|-4-----5-----7\--|-----------5-----|-2-----3-----5\--|
|-0-5---0-5---0-5-|---0-5---0-5-----|-0-3---0-3---0-3-|---0-3---0-3-----|


 3/4
  E E E E E E   E E E E Q      E E E E E E   E E E E Q
|-------------|-------------||-------------|------------||
|-------------|------------o||-------------|------------||
|-------------|-------------||-------------|------------||
|-------------|-------------||-------------|------------||
|-3-3-3-3-3-3-|-3-3-2-2----o||-3-3-3-3-3-3-|-3-3-5-5----||
|-1-1-1-1-1-1-|-3-1-0-0-----||-1-1-1-1-1-1-|-0-1-3-3----||


 Pre-Chorus
  $
 4/4
   E  E  E  E  E  E  E  E    E  E  E  E  E  E  E  E
|-------------------------|-------------------------|
|-------------------------|-------------------------|
|-------------------------|-------------------------|
|-10-10-10-10-10-10-10-10-|-------------------------|
|--8--8--8--8--8--8--8--8-|-10-10-10-10-10-10-10-10-|
|-------------------------|--8--8--8--8--8--8--8--8-|


  E E E E E E E E   E E E E E E E E
|-----------------|------------------|
|-----------------|------------------|
|-----------------|------------------|
|-----------------|-9-9-9-9-9-9-9-9--|
|-7-7-7-7-7-7-7-7-|-7-7-7-7-7-7-6-7--|
|-5-5-5-5-5-5-5-5-|------------------|


   E  E  E  E  E  E  E  E    E  E  E  E  E  E  E  E
|-------------------------|-------------------------|
|-------------------------|-------------------------|
|-------------------------|-------------------------|
|-10-10-10-10-10-10-10-10-|-12-12-12-12-12-12-12-12-|
|--8--8--8--8--8--8--8--8-|-10-10-10-10-10-10-10-10-|
|-------------------------|-------------------------|


   E  E  E  E  E  E  E  E    E  E  E  E  E  E  E  E
|-------------------------|-------------------------||
|-------------------------|-------------------------||
|-------------------------|-------------------------||
|-14-14-14-14-14-14-14-14-|-14-14-14-14-14-14-14-14-||
|-12-12-12-12-12-12-12-12-|-11-11-11-11-11-11-11-11-||
|-------------------------|-------------------------||


 Chorus
  Q  Q  E E E E   +E  E Q  E E E E   Q  Q  E E E E   +E  E Q  E E E E
|---------------|------------------|---------------|------------------|
|-4--4--4-4-4-4-|-(4)-5-5--5-5-5-5-|-4--4--4-4-4-4-|-(4)-5-5--5-5-5-5-|
|-4--4--4-4-4-4-|-(4)-4-4--4-4-4-4-|-4--4--4-4-4-4-|-(4)-4-4--4-4-4-4-|
|-7--7--7-7-7-7-|-(7)-7-7--7-7-7-7-|-7--7--7-7-7-7-|-(7)-7-7--7-7-7-7-|
|-0--0--0-0-0-0-|-(0)-0-0--0-0-0-0-|-0--0--0-0-0-0-|-(0)-0-0--0-0-0-0-|
|---------------|------------------|---------------|------------------|


  Q  Q  E E E E   +E  E Q  E E E E   Q  Q  E E E E   +E  E Q  E E E E
|---------------|------------------|---------------|------------------|
|-4--4--4-4-4-4-|-(4)-5-5--5-5-5-5-|-4--4--4-4-4-4-|-(4)-5-5--5-5-5-5-|
|-4--4--4-4-4-4-|-(4)-4-4--4-4-4-4-|-4--4--4-4-4-4-|-(4)-4-4--4-4-4-4-|
|-7--7--7-7-7-7-|-(7)-7-7--7-7-7-7-|-7--7--7-7-7-7-|-(7)-7-7--7-7-7-7-|
|-4--4--4-4-4-4-|-(4)-4-4--4-4-4-4-|-4--4--4-4-4-4-|-(4)-4-4--4-4-4-4-|
|---------------|------------------|---------------|------------------|


                          To Coda
  Q  Q  E E E E   +E  E Q  E E E E   Q  Q  E E E E   +E  E Q  E E E E
|---------------|------------------|---------------|------------------|
|---------------|------------------|---------------|------------------|
|---------------|------------------|---------------|------------------|
|-6--6--6-6-6-6-|-(6)-7-7--7-7-7-7-|-6--6--6-6-6-6-|-(6)-7-7--7-7-7-7-|
|-5--5--5-5-5-5-|-(5)-5-5--5-5-5-5-|-5--5--5-5-5-5-|-(5)-5-5--5-5-5-5-|
|-5--5--5-5-5-5-|-(5)-5-5--5-5-5-5-|-5--5--5-5-5-5-|-(5)-5-5--5-5-5-5-|


   Verse
    E E E E E E E E   E E E E E E Q     E E E E E E E E   E E E E E E Q
||------------------|-----------------|-----------------|------------------|
||o-----------------|-----------------|-----------------|------------------|
||------------------|-----------------|-----------------|------------------|
||------7-----------|-----------------|-----5-----------|------------------|
||o-----------7-----|-4-----5-----7\--|-----------5-----|-2-----3-----5/---|
||--0-5---0-5---0-5-|---0-5---0-5-----|-0-3---0-3---0-3-|---0-3---0-3------|


  1.                          2.
 3/4                          4/4
  E E E E E E   E E E E Q      E E E E E E E E   E E E E E E Q
|-------------|-------------||-----------------|-----------------|
|-------------|------------o||-----------------|-----------------|
|-------------|-------------||-----------------|-----------------|
|-------------|-------------||-----7-----------|-----------------|
|-3-3-3-3-3-3-|-3-3-2-2----o||-----------7-----|-4-----5-----7\--|
|-1-1-1-1-1-1-|-3-1-0-0-----||-0-5---0-5---0-5-|---0-5---0-5-----|


 6/8
  E E E E E E   E E E E Q    E E E E E E   E E E E Q
|-------------|------------|-------------|------------||
|-------------|------------|-------------|------------||
|-------------|------------|-------------|------------||
|-------------|------------|-------------|------------||
|-3-3-3-3-3-3-|-3-3-2-2----|-3-3-3-3-3-3-|-3-3-5-5----||
|-1-1-1-1-1-1-|-3-1-0-0----|-1-1-1-1-1-1-|-0-1-3-3----||


 Pre-Chorus
 4/4
   E  E  E  E  E  E  E  E    E  E  E  E  E  E  E  E
|-------------------------|-------------------------|
|-------------------------|-------------------------|
|-------------------------|-------------------------|
|-10-10-10-10-10-10-10-10-|-------------------------|
|--8--8--8--8--8--8--8--8-|-10-10-10-10-10-10-10-10-|
|-------------------------|--8--8--8--8--8--8--8--8-|


                      D.S. al Coda
  E E E E E E E E   E E E E E E E E
|-----------------|------------------|
|-----------------|------------------|
|-----------------|------------------|
|-----------------|-9-9-9-9-9-9-9-9--|
|-7-7-7-7-7-7-7-7-|-7-7-7-7-7-7-6-7--|
|-5-5-5-5-5-5-5-5-|------------------|


                                      Breakdown
  &
                                      6/8
  Q  Q  E E E E   +E  E Q  E E E E     E E E E E E   E E E E E E  7x
|---------------|------------------||--------------|--------------||
|---------------|------------------||o-------------|-------------o||
|---------------|------------------||--------------|--------------||
|-4--4--4-4-4-4-|-(4)-5-5--5-5-5-5-||----5-----5---|--------------||
|-3--3--3-3-3-3-|-(3)-3-3--3-3-3-3-||o-------------|---9-----9---o||
|-3--3--3-3-3-3-|-(3)-3-3--3-3-3-3-||--5---0-3---0-|-7---0-7---0--||


 Bridge
  E E E E E E   Q  E E E E   Q  E E E E   Q  E E E E
|-------------|------------|------------|-------------|
|-------------|------------|------------|-------------|
|-------------|------------|------------|-------------|
|-------------|------------|-9--9-9-9-9-|-------------|
|-9-9-9-9-8-7-|-6--6-6-6-6-|-7--7-7-7-7-|-9--9-9-9-9--|
|-7-7-7-7-6-5-|-4--4-4-4-4-|------------|-7--7-7-7-7--|


  Q  E E E E   E Q  E Q    Q  E E E E   Q  E E E E   E E E E E E
|------------|-----------|------------|------------|--------------|
|------------|-----------|------------|------------|--------------|
|------------|-----------|------------|------------|--------------|
|------------|-----------|------------|-4--4-4-4-4-|--------------|
|-4--4-4-4-4-|-6----4----|-2--2-2-2-2-|-2--2-2-2-2-|-4-4-4-4-4-6--|
|-2--2-2-2-2-|-4----2----|-0--0-0-0-0-|------------|-2-2-2-2-2-4--|


    Q  E E E E   Q  E E E E    Q   E  E  E  E   E E E E E E  3x
||-------------|------------|-----------------|--------------||
||o------------|------------|-----------------|-------------o||
||-------------|------------|-----------------|--------------||
||-------------|-9--9-9-9-9-|-----------------|--------------||
||o-7--7-7-7-7-|-7--7-7-7-7-|-10--10-10-10-10-|-9-8---9-8---o||
||--5--5-5-5-5-|------------|--8---8--8--8--8-|-7-6---7-6----||


   Breakdown
    E E E E E E   E E E E E E   E E E E E E   E E E E E E  4x
||--------------|-------------|-------------|--------------||
||o-------------|-------------|-------------|-------------o||
||--------------|-------------|-------------|--------------||
||----5-----5---|-------------|---5-----5---|--------------||
||o-------------|---9-----9---|-------------|---9-----9---o||
||--5---0-3---0-|-7---0-7---0-|-5---0-3---0-|-7---0-7---0--||


 Intro (revisited)
 4/4
   E  E  E  E  E  E E  E    Q  E Q  Q  E   Q  E Q  E Q    E E E E Q  E  E
|------------------------|---------------|--------------|------------------|
|------------------------|---------------|--------------|------------------|
|---------------------11-|-11--7-7--7--4-|-4--7-7--6-6--|---4---2-2--------|
|-11-11-12-11-14-11----9-|--9--5-5--5--2-|-2--5-5--7-7--|---5---2-2----11--|
|--0--0--0--0--0--0------|---------------|--------------|---------------0--|
|------------------------|---------------|--------------|------------------|


   E  E  E  E  E  E E  E    Q  E Q  Q  E   Q  E Q  E Q    +E  Q  E Q  Q
|------------------------|---------------|--------------|----------------|
|------------------------|---------------|--------------|----------------|
|---------------------11-|-11--7-7--7--4-|-4--7-7--6-6--|-(6)-6--6-6--6--|
|-11-11-12-11-14-11----9-|--9--5-5--5--2-|-2--5-5--7-7--|-(7)-7--7-7--7--|
|--0--0--0--0--0--0------|---------------|--------------|----------------|
|------------------------|---------------|--------------|----------------|


 Verse
  E E E E E E E E   E E E E E E Q     E E E E E E E E   E E E E E E Q
|-----------------|-----------------|-----------------|-----------------|
|-----------------|-----------------|-----------------|-----------------|
|-----------------|-----------------|-----------------|-----------------|
|-----7-----------|-----------------|-----5-----------|-----------------|
|-----------7-----|-4-----5-----7\--|-----------5-----|-2-----3-----5\--|
|-0-5---0-5---0-5-|---0-5---0-5-----|-0-3---0-3---0-3-|---0-3---0-3-----|


 6/8
  E E E E E E   E E E E Q    E E E E E E   E E E E Q
|-------------|------------|-------------|------------|
|-------------|------------|-------------|------------|
|-------------|------------|-------------|------------|
|-------------|------------|-------------|------------|
|-3-3-3-3-3-3-|-3-3-2-2----|-3-3-3-3-3-3-|-3-3-5-5----|
|-1-1-1-1-1-1-|-3-1-0-0----|-1-1-1-1-1-1-|-0-1-3-3----|


   Chorus
   4/4
    Q  Q  E E E E   +E  E Q  E E E E   Q  Q  E E E E   +E  E Q  E E E E
||----------------|------------------|---------------|------------------|
||o-4--4--4-4-4-4-|-(4)-5-5--5-5-5-5-|-4--4--4-4-4-4-|-(4)-5-5--5-5-5-5-|
||--4--4--4-4-4-4-|-(4)-4-4--4-4-4-4-|-4--4--4-4-4-4-|-(4)-4-4--4-4-4-4-|
||--7--7--7-7-7-7-|-(7)-7-7--7-7-7-7-|-7--7--7-7-7-7-|-(7)-7-7--7-7-7-7-|
||o-0--0--0-0-0-0-|-(0)-0-0--0-0-0-0-|-0--0--0-0-0-0-|-(0)-0-0--0-0-0-0-|
||----------------|------------------|---------------|------------------|


  Q  Q  E E E E   +E  E Q  E E E E   Q  Q  E E E E   +E  E Q  E E E E
|---------------|------------------|---------------|------------------|
|-4--4--4-4-4-4-|-(4)-5-5--5-5-5-5-|-4--4--4-4-4-4-|-(4)-5-5--5-5-5-5-|
|-4--4--4-4-4-4-|-(4)-4-4--4-4-4-4-|-4--4--4-4-4-4-|-(4)-4-4--4-4-4-4-|
|-7--7--7-7-7-7-|-(7)-7-7--7-7-7-7-|-7--7--7-7-7-7-|-(7)-7-7--7-7-7-7-|
|-4--4--4-4-4-4-|-(4)-4-4--4-4-4-4-|-4--4--4-4-4-4-|-(4)-4-4--4-4-4-4-|
|---------------|------------------|---------------|------------------|


  1.
  Q  Q  E E E E   +E  E Q  E E E E   Q  Q  E E E E   +E  E Q  E E E E
|---------------|------------------|---------------|-------------------||
|---------------|------------------|---------------|------------------o||
|---------------|------------------|---------------|-------------------||
|-6--6--6-6-6-6-|-(6)-7-7--7-7-7-7-|-4--4--4-4-4-4-|-(4)-5-5--5-5-5-5--||
|-5--5--5-5-5-5-|-(5)-5-5--5-5-5-5-|-3--3--3-3-3-3-|-(3)-3-3--3-3-3-3-o||
|-5--5--5-5-5-5-|-(5)-5-5--5-5-5-5-|-3--3--3-3-3-3-|-(3)-3-3--3-3-3-3--||


  2.
  Q  Q  Q  Q    Q  Q  Q  Q    E E E E E E E E   E E E E E E E E
|-------------|-------------|-----------------|-----------------|
|-------------|-------------|-----------------|-----------------|
|-------------|-------------|-----------------|-----------------|
|-6--6--6--6--|-6--6--7--7--|-4-4-4-4-4-4-4-4-|-4-4-4-4-4-4-4-4-|
|-5--5--5--5--|-5--5--5--5--|-3-3-3-3-3-3-3-3-|-3-3-3-3-3-3-3-3-|
|-5--5--5--5--|-5--5--5--5--|-3-3-3-3-3-3-3-3-|-3-3-3-3-3-3-3-3-|


   Outro
   6/8
    E E E E E E   E E E E E E  8x     E E E E E E  7x
||--------------|--------------||-||---------------||
||o-------------|-------------o||-||o-------------o||
||--------------|--------------||-||---------------||
||----5-----5---|--------------||-||---------------||
||o-------------|---9-----9---o||-||o---9-----9---o||
||--5---0-3---0-|-7---0-7---0--||-||--7---0-7---0--||


      E E E E E E   E E E E E E   4x
|-||--------------|---------------||
|-||o-------------|--------------o||
|-||--------------|---------------||
|-||----5-----5---|---------------||
|-||o-------------|---9-----9----o||
|-||--5---0-3---0-|-7---0-7---0---||


 4/4
   E  E  E  E  E  E Q    W          W          W
|----------------------|----------|----------|------*|
|----------------------|----------|----------|------*|
|----------------------|----------|----------|------*|
|-11-11-12-11-14-11----|----------|----------|------*|
|--0--0--0--0--0--0----|----------|----------|------*|
|----------------------|----------|----------|------*|




--------------------------------------------------------------------------------


Duration Legend
---------------
W - whole; H - half; Q - quarter; E - 8th; S - 16th; T - 32nd; X - 64th; a - acciaccatura
+ - note tied to previous; . - note dotted; .. - note double dotted
Uncapitalized letters represent notes that are staccato (1/2 duration)
Irregular groupings are notated above the duration line
Duration letters will always appear directly above the note/fret number it represents the
duration for.  Duration letters with no fret number below them represent rests.  Multi-
bar rests are notated in the form Wxn, where n is the number of bars to rest for.  Low
melody durations appear below the staff

Tablature Legend
----------------
 h   - hammer-on
 p   - pull-off
 b   - bend
 pb  - pre-bend
 r   - bend release (if no number after the r, then release immediately)
 /\  - slide into or out of (from/to "nowhere")
 s   - legato slide
 S   - shift slide
 - natural harmonic
[n]  - artificial harmonic
n(n) - tapped harmonic
 ~   - vibrato
 tr  - trill
 T   - tap
 TP  - trem. picking
 PM  - palm muting
\n/  - tremolo bar dip; n = amount to dip
 \n  - tremolo bar down
 n/  - tremolo bar up
/n\  - tremolo bar inverted dip
 =   - hold bend; also acts as connecting device for hammers/pulls
 <> - volume swell (louder/softer)
 x   - on rhythm slash represents muted slash
 o   - on rhythm slash represents single note slash

Misc Legend
-----------
 |  - bar
||  - double bar
||o - repeat start
o|| - repeat end
*|  - double bar (ending)
 :  - bar (freetime)
 $  - Segno
 &  - Coda
Tempo markers -  = BPM(8/16=s8/s16), where s8 = swing 8ths, s16 = swing 16ths



--------------------------------------------------------------------------------

** Generated using Power Tab Editor by Brad Larsen: The Official Power Tab Web Site
Related for Anosmium tab