Stemage - Phendrana Drifts tab

                            Phendrana Drifts                               
                                                              Metroid Metal
Tabbed by Silfrgluggr
\m/
part a. Guitar 3 is the main theme
part b. guitar 1 is the leads
part c. guitar 2 is rythym

[Guitar 3 - Clean]
     E  E  E  Q    E  E  E   
D||-----4-----5----4-----4--|
A||-------------------------|
F||--------6----------6-----|
C||--4----------------------|x4
G||-------------------------|
C||-------------------------|

  ^       ^                                         
  E  Q    E  Q    Q       E  E  E    Q    E  E  E   
--4--L----5--L----4----|-----4-----4g5----4-----4--|
--5--L----5--L---------|---------------------------|
--6-------6------------|--------6------------6-----|
--4--L----4--L---------|--4------------------------|
-----------------------|---------------------------|
-----------------------|---------------------------|


  E  E  E  Q    E  E  E    
-----4-----5----4-----4--|
-------------------------|
--------6----------6-----|
--4----------------------|
-------------------------|x3
-------------------------|


  E  E  E  Q    E  E  E   
-----2-----4----0-----0--|
--------2----------------|
-------------------2-----|
--2----------------------|
-------------------------|
-------------------------|


  E  E  E  Q    E  E  E     E  E  E  Q    E  E  E   
-----2-----5----0-----0--|-----------0-------------|
--------2----------------|-----3----------3--2--3--|
-------------------2-----|--------2----------------|
--2----------------------|--0----------------------|
-------------------------|-------------------------|
-------------------------|-------------------------|


                                                      ^                 
  E  E  E  Q    E  E  E     E  E  E  Q    E  E  E     W                 
-----------5-------------|--------0--2----0-----0--|--2--|
-----3----------3--2--3--|-------------------2-----|--5--|
--------2----------------|-------------------------|--6--|
-------------------------|-----2-------------------|--2--|
--5----------------------|--4----------------------|--4--|
-------------------------|-------------------------|-----|

     S S S S S S S S S S S S S S S S  
||-------5-------5-------5-------5---|
||---3-1-----3-------3-------3-------|
||*--------5---5---5---5---5---5---5-|
||*----------------------------------|
||-----------------------------------|
||-----------------------------------|


  S S S S S S S S E  Q    E     S S S S S S S S S S S S S S S S  
------5-------5------2-------|------3-------3-------3-------3---|
--3-------3-----3---------1--|--3-------3-------3-------3-------|
----5---5---5-----5----------|----5---5---5---5---5---5---5---5-|
-----------------------------|----------------------------------|
-----------------------------|----------------------------------|
-----------------------------|----------------------------------|


  S S S S S S S S E  Q    E        E  E  E  E  H         
------3-------3------3--------||------------3--L--------|
--3-------3-----3---------1---||---------3--------------|
----5---5---5-----5----------*||*-----5-----------------|
-----------------------------*||*--5--------------------|
------------------------------||------------------------|
------------------------------||------------------------|


  E  E  E  E  H           E  E  E  E  H           E  E  E  Q    E  E  E   
-----------3--L--------|-----------3--L--------|-----------3-------------||
--------3--------------|--------3--------------|--------3-------3-----3--||
-----5-----------------|-----5-----------------|-----5-------------5----*||x3
--5--------------------|--5--------------------|--5---------------------*||
-----------------------|-----------------------|-------------------------||
-----------------------|-----------------------|-------------------------||

rest for fast part


   <         SH    SH              
   E   E     E     Q     E  E   E   
-----------------------------------|
-----------------------------------|
----------<>14--<>12----10--9------|
------12-----------------------12--|
--10-------------------------------|
-----------------------------------|

rest again

  E  E  E  E  H           E  E  E  E  H         
-----------3--L--------|-----------3--L--------|
--------3--------------|--------3--------------|
-----5-----------------|-----5-----------------|
--5--------------------|--5--------------------|
-----------------------|-----------------------|
-----------------------|-----------------------|


  E  E  E  E  H           E  E  E  E  E  E  E  E   
-----------3--L--------|-----------3--L-----------|
--------3--------------|--------3--------3-----3--|x2 3/4 (leave last bar out on third time)
-----5-----------------|-----5--------------5-----|
--5--------------------|--5-----------------------|
-----------------------|--------------------------|
-----------------------|--------------------------|

     <                                          >       
     H         Q    E   S  S     H        Q     Q       
------------------------------|------------------------|
------------------------------|------------------------|
--<>12--------10----9--10p-9h-|--7--------9------------|
------------------------------|----------------10br----|
------------------------------|------------------------|
------------------------------|------------------------|


                          <                                                
  W                       H.            Q        H         Q    E   S  S   
-------------------|--<>(15)------------L----|----------------------------|
-------------------|-------------------------|----------------------------|
-------------------|-------------------------|--12--------10----9--10p-9h-|
--L----------------|------L-------------L----|----------------------------|
-------------------|-------------------------|----------------------------|
-------------------|-------------------------|----------------------------|


                         >                                       
  H        Q     Q       W                     W                 
----------------------|---------------------|-------------------|
----------------------|---------------------|-------------------|
--7--------9----10----|--9br----------------|--L----------------|
----------------------|---------------------|-------------------|
----------------------|---------------------|-------------------|
----------------------|---------------------|-------------------|


   H         Q    E   S  S     H        Q     Q         W                 
----------------------------|------------------------|-------------------|
----------------------------|------------------------|-------------------|
--12--------10----9--10p-9h-|--7--------9-----7------|-------------------|
----------------------------|----------------10br----|--L----------------|
----------------------------|------------------------|-------------------|
----------------------------|------------------------|-------------------|


      <                                                
      H.            Q        H         Q    E   S  S   
--<>(15)------------L----|----------------------------|
-------------------------|----------------------------|
-------------------------|--12--------10----9--10p-9h-|
------L-------------L----|----------------------------|
-------------------------|----------------------------|
-------------------------|----------------------------|


  H        Q     Q       W                     W                         
----------------------|---------------------|-------------------|
----------------------|---------------------|-------------------|
--7--------9----10----|--9br----------------|--L----------------|
----------------------|---------------------|-------------------|
----------------------|---------------------|-------------------|
----------------------|---------------------|-------------------|

fast part

--17--|
--18--|
------|
------|
------|
------|

fast part ( again..)


For here i set my whammy pedal to harmonize +1 octave

   H         Q    E   S  S     H        Q     Q         W                 
----------------------------|------------------------|-------------------|
----------------------------|------------------------|-------------------|
--12--------10----9--10p-9h-|--7--------9------------|-------------------|
----------------------------|----------------10br----|--L----------------|
----------------------------|------------------------|-------------------|
----------------------------|------------------------|-------------------|


      <                                                
      H.            Q        H         Q    E   S  S   
--<>(15)------------L----|----------------------------|
-------------------------|----------------------------|
-------------------------|--12--------10----9--10p-9h-|
------L-------------L----|----------------------------|
-------------------------|----------------------------|
-------------------------|----------------------------|


  H        Q     Q       H.             E  E      W                 
----------------------|------------------------|-------------------|
----------------------|------------------------|-------------------|
--7--------9----10----|--9br------------L--LS--|--5----------------|
----------------------|------------------------|-------------------|
----------------------|------------------------|-------------------|
----------------------|------------------------|-------------------|


   H         Q    E   S  S     H        Q     Q       Q.      Q.     Q     
----------------------------|----------------------|----------------------|
----------------------------|----------------------|----------------------|
--12--------10----9--10p-9h-|--7--------9----------|----------------------|
----------------------------|----------------10----|--L------12------L----|
----------------------------|----------------------|----------------------|
----------------------------|----------------------|----------------------|


      <                                                
      H.            Q        H         Q    E   S  S   
--<>(15)------------L----|----------------------------|
-------------------------|----------------------------|
-------------------------|--12--------10----9--10p-9h-|
------L-------------L----|----------------------------|
-------------------------|----------------------------|
-------------------------|----------------------------|


  H        Q     Q       H.             E  E     H         H         
----------------------|-----------------------|---------------------|
----------------------|-----------------------|---------------------|
--7--------9----10----|--9br------------L--L--|--LS--------7--------|
----------------------|-----------------------|---------------------|
----------------------|-----------------------|---------------------|
----------------------|-----------------------|---------------------|

  E  E   E   E  E  E   E   E        H        H         
------------10------------10--|  |--------------------|
-----8--10---------8--10------|  |--------------------|
--7-------------7-------------|x7|--------------------|
------------------------------|  |--------------------|
------------------------------|  |--3--------2--------|
------------------------------|  |--3--------2--------|

  E  E   E   E  E  E   E   E   
------------10------------10--|
-----8--10---------8--10------|
--7-------------7-------------|x6
------------------------------|  
------------------------------|  
------------------------------|

   Q       Q     Q     Q        H         H            H        H         
----------------------------|--17--------15~--------|--L--------L--------|
--17br-----L----17----15----|-----------------------|--------------------|
----------------------------|-----------------------|--------------------|
----------------------------|-----------------------|--------------------|
----------------------------|-----------------------|--------------------|
----------------------------|-----------------------|--------------------|

rest

   H          H           H         H           W                 
-----------------------|---------------------|-------------------|
-----------------------|---------------------|-------------------|
--11S--------14--------|--7S--------5--------|--2----------------|
-----------------------|---------------------|-------------------|
-----------------------|---------------------|-------------------|
-----------------------|---------------------|-------------------|


  W                   W                   W                  
-------------------|-------------------|-------------------||
-------------------|-------------------|-------------------||
--L----------------|--L----------------|--L----------------||
-------------------|-------------------|-------------------||
-------------------|-------------------|-------------------||
-------------------|-------------------|-------------------||
____________________________________________________________________________

[Guitar 1]
  Q.     Q      Q.        H.            E   E   
D|-----------------------|-----------------------|
A|-----------------------|-----------------------|
F|-----------------------|-----------------------|
C|-----------------------|---------------11--13--|
G|--9------Ls----16------|--L--------------------|
C|-----------------------|-----------------------|

   E   Q     Q     Q     E       H        Q    Q        W                 
-----------------------------|-----------------------|-------------------|
-----------------------------|-----------------------|-------------------|
-----------------------------|-----------------------|-------------------|
--14---L----13----11p----9h--|--11--------L----Ls----|--4----------------|
-----------------------------|-----------------------|-------------------|
-----------------------------|-----------------------|-------------------|


  H          H           H        E.   E.  E     E.  E.  E  Q    Q     
----------------------|-----------------------|-----------------------|
----------------------|-----------------------|-----------------------|
----------------------|-----------------------|-----------------------|
----------------------|-----------9---11---7--|--9---6---7--6---------|
--9S--------16--------|--L--------------------|------------------4----|
----------------------|-----------------------|-----------------------|


  H        Q    E  E     Q.     Q.     E    E     W                 
----------------------|------------------------|-------------------|
----------------------|------------------------|-------------------|
----------------------|------------------------|-------------------|
----------------------|------------------------|-------------------|
--L--------L----2--4--|--7------5------4--5g4--|--2----------------|
----------------------|------------------------|-------------------|


  E.   E.   E.   E.  Q       H        H           H        Q    Q     
--------------------------|--------------------|---------------------|
--------------------------|--------------------|---------------------|
--------------------------|--------------------|---------------------|
--------------------------|--------------------|---------------------|
--------------------------|--------------------|---------------------|
--7s---9s---6h---7---L----|--L--------L--------|--L--------L----L----|

        E  E   E  E  H         
 rest|-------------------------|
 for |-------------8--L--------|
 8   |--10--9--10--------------|
 bars|-------------------------|
     |-------------------------|
     |-------------------------|


     E  E   E   E  H           E   E  H.            
----------------------------|----------------------|
---------------10--L--------|----------------------|
--9g10--9--10---------------|--9-------------------|
----------------------------|-----10--L------------|
----------------------------|----------------------|
----------------------------|----------------------|


   E  E   E  E  H              E  E   E   E  H         
-------------------------|----------------------------|
-------------8--L--------|---------------10--L--------|
--10--9--10--------------|--9g10--9--10---------------|
-------------------------|----------------------------|
-------------------------|----------------------------|
-------------------------|----------------------------|


  E   E  H.              W                    E  E   E  E  H         
----------------------|-------------------|-------------------------|
----------------------|-------------------|-------------8--L--------|
--9-------------------|-------------------|--10--9--10--------------|
-----10--L------------|--L----------------|-------------------------|
----------------------|-------------------|-------------------------|
----------------------|-------------------|-------------------------|


     E  E   E   E  H           E   E  H.              W                 
----------------------------|----------------------|-------------------|
---------------10--L--------|----------------------|-------------------|
--9g10--9--10---------------|--9-------------------|-------------------|
----------------------------|-----10--L------------|--L----------------|
----------------------------|----------------------|-------------------|
----------------------------|----------------------|-------------------|


   S  S  S  S  S  S  S  S  S  S  S  S  S  S  S  S  
-----------------------------13-15-17-15-13-------|
--------------------13-15-17----------------17-15-|
-----------12-14-15-------------------------------|
--12-14-15----------------------------------------|
--------------------------------------------------|
--------------------------------------------------|


   S  S  S  S  S  S  S  S  S  S  S  S  S  S  S  S  
--15-13-------15-13-------15-13-------------------|
--------17-15-------17-15-------17-15-13-------15-|
-----------------------------------------15-14----|
--------------------------------------------------|
--------------------------------------------------|
--------------------------------------------------|


   S  S  S  S  S  S  S  S  S  S  S  S  S  S  S  S  
--------------------------------------------------|
--13----------------------------------------------|
-----15-14-12-------------12----------------------|
--------------15-14-12-------15-14-12-------------|
-----------------------15-------------15-13-12-15-|
--------------------------------------------------|


   S  S  S  S  S  S  S S S S  S S S S E     W                 
-----------------------------------------|-------------------|
-----------------------------------------|-------------------|
-----------------------------------------|-------------------|
-----------------------------------------|-------------------|
--13-12-10-------------8-7-5-------------|-------------------|
-----------15-14-12-10-------10-8-7-5-L--|--L----------------|


   E  E   E    E  H            E  E   E    E  H         
---------------------------|---------------------------|
---------------------------|---------------------------|
--10--9--10s--12--L--------|--10--9--10s--14--L--------|
---------------------------|---------------------------|
---------------------------|---------------------------|
---------------------------|---------------------------|


  E   Q.     Q     Q        W                    E  E   E    E  H         
------------------------|--------------------|---------------------------|
------------------------|--------------------|---------------------------|
--9---------------------|--------------------|--10--9--10s--12--L--------|
-----10------L----12----|--------------------|---------------------------|
------------------------|--12----------------|---------------------------|
------------------------|--------------------|---------------------------|


   E  E   E    E  H            E   Q.     Q      Q     
---------------------------|--------------------------|
---------------------------|------13------Ls----15----|
--10--9--10s--14--L--------|--10----------------------|
---------------------------|--------------------------|
---------------------------|--------------------------|
---------------------------|--------------------------|


   Q      Q    Q      Q        E  E   E    E  H         
---------------------------|---------------------------|
--10s----11----8s----10----|---------------------------|
---------------------------|--10--9--10s--12--L--------|
---------------------------|---------------------------|
---------------------------|---------------------------|
---------------------------|---------------------------|


   E  E   E    E  H            E  E   E    E  E  Q    E   
---------------------------|-----------------------------|
---------------------------|-----------------------------|
--10--9--10s--12--L--------|--10--9--10s--12-----9----5--|
---------------------------|-----------------------------|
---------------------------|-----------------------------|
---------------------------|-----------------------------|

                    (slide into the notes here to give it a quieter feel)
  W                     E   E    E    E  Q    Q      
-------------------|--------------------------------|
-------------------|--------------------------------|
--7----------------|--/10s--9s--10s--12--L----L\----|
-------------------|--------------------------------|
-------------------|--------------------------------|
-------------------|--------------------------------|


    E   E    E    E  H             E   E    E    E  E   Q     E    
------------------------------|-----------------------------------|
------------------------------|-----------------------------------|
--/10s--9s--10s--12--L--------|--/10s--9s--10s--12-----/9S----5s--|
------------------------------|-----------------------------------|
------------------------------|-----------------------------------|
------------------------------|-----------------------------------|


  W                                                         
-------------------|-------------------|-------------------|
-------------------|-------------------|-------------------|
--7----------------|-------------------|-------------------|
-------------------|-------------------|-------------------|
-------------------|-------------------|-------------------|
-------------------|-------------------|-------------------|


   H         E  Q.         E  E   E   E  H         
-----------------------|--------------------------|
-----------------------|--------------------------|
-----------------------|--10--9--10--12-----------|
-----------------------|--------------------------|
--17s--------0---------|--------------------------|
--17s--------0---------|--------------------------|


   E  E   E   E  H           E   E  H.                        
--------------------------|----------------------|-----------|
--------------------------|----------------------|-----------|
--10--9--10--14-----------|--9-------------------|-----------|
--------------------------|-----10---------------|-----------|
--------------------------|----------------------|-----------|
--------------------------|----------------------|-----------|


   E  E   E   E  H            E  E   E   E  H         
--------------------------|--------------------------|
--------------------------|--------------------------|
--10--9--10--12-----------|--10--9--10--14-----------|
--------------------------|--------------------------|
--------------------------|--------------------------|
--------------------------|--------------------------|


  E   E  H.                           E  E   E   E  H         
----------------------|-----------|--------------------------|
----------------------|-----------|--------------------------|
--9-------------------|-----------|--10--9--10--12-----------|
-----10---------------|-----------|--------------------------|
----------------------|-----------|--------------------------|
----------------------|-----------|--------------------------|


   E  E   E   E  H           E   E  H.                        
--------------------------|----------------------|-----------|
--------------------------|----------------------|-----------|
--10--9--10--14-----------|--9-------------------|-----------|
--------------------------|-----10---------------|-----------|
--------------------------|----------------------|-----------|
--------------------------|----------------------|-----------|


   E  E   E   E  H            E  E   E   E  H         
--------------------------|--------------------------|
--------------------------|--------------------------|
--10--9--10--12-----------|--10--9--10--14-----------|
--------------------------|--------------------------|
--------------------------|--------------------------|
--------------------------|--------------------------|


  E   E  H.                        
----------------------|-----------|
----------------------|-----------|
--9-------------------|-----------|
-----10---------------|-----------|
----------------------|-----------|
----------------------|-----------|


   S  S  S  S  S  S  S  S  S  S  S  S  S  S  S  S  
-----------------------------13-15-17-15-13-------|
--------------------13-15-17----------------17-15-|
-----------12-14-15-------------------------------|
--12-14-15----------------------------------------|
--------------------------------------------------|
--------------------------------------------------|


   S  S  S  S  S  S  S  S  S  S  S  S  S  S  S  S  
--15-13-------15-13-------15-13-------------------|
--------17-15-------17-15-------17-15-13-------15-|
-----------------------------------------15-14----|
--------------------------------------------------|
--------------------------------------------------|
--------------------------------------------------|


   S  S  S  S  S  S  S  S  S  S  S  S  S  S  S  S  
--------------------------------------------------|
--13----------------------------------------------|
-----15-14-12-------------12----------------------|
--------------15-14-12-------15-14-12-------------|
-----------------------15-------------15-13-12-15-|
--------------------------------------------------|


                                                      <         
   S  S  S  S  S  S  S S S S  S S S S E     H         H         
-----------------------------------------|-----------22--------|
-----------------------------------------|---------------------|
-----------------------------------------|---------------------|
-----------------------------------------|---------------------|
--13-12-10-------------8-7-5-------------|---------------------|
-----------15-14-12-10-------10-8-7-5-L--|---------------------|


  W                    S  S  S  S  S  S  S  S  S  S  S  S  S  S  S  S  
--L----------------|-----------------------------13-15-17-15-13-------|
-------------------|--------------------13-15-17----------------17-15-|
-------------------|-----------12-14-15-------------------------------|
-------------------|--12-14-15----------------------------------------|
-------------------|--------------------------------------------------|
-------------------|--------------------------------------------------|


   S  S  S  S  S  S  S  S  S  S  S  S  S  S  S  S  
--15-13-------15-13-------15-13-------------------|
--------17-15-------17-15-------17-15-13-------15-|
-----------------------------------------15-14----|
--------------------------------------------------|
--------------------------------------------------|
--------------------------------------------------|


   S  S  S  S  S  S  S  S  S  S  S  S  S  S  S  S  
--------------------------------------------------|
--13----------------------------------------------|
-----15-14-12-------------12----------------------|
--------------15-14-12-------15-14-12-------------|
-----------------------15-------------15-13-12-15-|
--------------------------------------------------|


                                                 PM PM PM PM              
   S  S  S  S  S  S  S S S S  S S S S Q.         E  E  E  E  E  E  E  E   
----------------------------------------------|--------------------------|
----------------------------------------------|--------------------------|
----------------------------------------------|--------------------------|
----------------------------------------------|--------------------------|
--13-12-10-------------8-7-5------------------|--3--2--3--5--------------|
-----------15-14-12-10-------10-8-7-5-L\------|--3--2--3--5--------------|


  PM PM PM PM                PM PM PM PM    PM    PM  
  E  E  E  E  E  E  E  E     E  E  E  E  E  E  E  E   
--------------------------|--------------------------|
--------------------------|--------------------------|
--------------------------|--------------------------|
--------------------------|--------------------------|
--3--2--3--5--------------|--3--2--3--5-----2-----3--|
--3--2--3--5--------------|--3--2--3--5-----2-----5--|


  PM  PM                       PM PM PM PM              
  E.  E  H        E.           E  E  E  E  E  E  E  E   
----------------------|-----|--------------------------|
----------------------|-----|--------------------------|
----------------------|-----|--------------------------|
----------------------|-----|--------------------------|
--0---0---------------|-----|--3--2--3--5--------------|
--0---0---------------|-----|--3--2--3--5--------------|


  PM PM PM PM                PM PM PM PM    PM    PM  
  E  E  E  E  E  E  E  E     E  E  E  E  E  E  E  E   
--------------------------|--------------------------|
--------------------------|--------------------------|
--------------------------|--------------------------|
--------------------------|--------------------------|
--3--2--3--5--------------|--3--2--3--5-----2-----3--|
--3--2--3--5--------------|--3--2--3--5-----2-----5--|


   E  E   E   E  H            E  E   E   E  H         
--------------------------|--------------------------|
--------------------------|--------------------------|
--10--9--10--12-----------|--10--9--10--14-----------|
--------------------------|--------------------------|
--------------------------|--------------------------|
--------------------------|--------------------------|


  E   E  H.                               E  E   E   E  H         
----------------------|---------------|--------------------------|
----------------------|---------------|--------------------------|
--9-------------------|---------------|--10--9--10--12-----------|
-----10---------------|---------------|--------------------------|
----------------------|---------------|--------------------------|
----------------------|---------------|--------------------------|


   E  E   E   E  H           E   E  H.                            
--------------------------|----------------------|---------------|
--------------------------|----------------------|---------------|
--10--9--10--14-----------|--9-------------------|---------------|
--------------------------|-----10---------------|---------------|
--------------------------|----------------------|---------------|
--------------------------|----------------------|---------------|


   E  E   E   E  H            E  E   E   E  H         
--------------------------|--------------------------|
--------------------------|--------------------------|
--10--9--10--12-----------|--10--9--10--14-----------|
--------------------------|--------------------------|
--------------------------|--------------------------|
--------------------------|--------------------------|


  E   E  H.                               E  E   E   E  H         
----------------------|---------------|--------------------------|
----------------------|---------------|--------------------------|
--9-------------------|---------------|--10--9--10--12-----------|
-----10---------------|---------------|--------------------------|
----------------------|---------------|--------------------------|
----------------------|---------------|--------------------------|


   E  E   E   E  H           E   E  H.              H        H         
--------------------------|----------------------|--------------------|
--------------------------|----------------------|--------------------|
--10--9--10--14-----------|--9-------------------|--------------------|
--------------------------|-----10---------------|-----------7--------|
--------------------------|----------------------|--------------------|
--------------------------|----------------------|--------------------|


  E  E  E  E  E  E  E  E        H        H          
--------------------------|  |---------------------|
--------------------------|  |---------------------|
-----------7-----------7--|x7|--5--------9~--------|
-----5--7--------5--7-----|  |---------------------|
--5-----------5-----------|  |---------------------|
--------------------------|  |---------------------|

  E  E  E  E  E  E  E  E        H         H         
--------------------------|  |---------------------|
--------------------------|  |---------------------|
-----------7-----------7--|  |--7--------12--------|
-----5--7--------5--7-----|x7|---------------------|
--5-----------5-----------|  |---------------------|
--------------------------|  |---------------------|


  PM PM PM PM PM PM PM PM PM    PM PM PM PM PM PM PM PM PM  
  E  E  E  E  S  S  E  E  E     E  E  E  E  S  S  E  E  E   
-----------------------------|-----------------------------|
-----------------------------|-----------------------------|
-----------------------------|-----------------------------|
-----------0--------------0--|-----------0--------------0--|
--------0--------------0-----|--------0--------------0-----|
--0--5--------0--0--5--------|--0--5--------0--0--5--------|

                                (Scrape Pick a bunch)
  PM PM PM PM PM PM PM PM PM    PM PM PM PM PM PM PM PM PM  
  S  S  E  E  E  E  E  E  E     E  S  E  S  E  E  E  E  E   
-----------------------------|-----------------------------|
-----------------------------|-----------------------------|
-----------------------------|-----------------------------|
--------------0-----------0--|--x--x--x--x--0-----------0--|
-----------0-----------0-----|--x--x--x--x--x--------0-----|
--0--0--5--------0--5--------|--0--5--5--0--x--0--5--------|


  PM PM PM PM PM PM PM PM    PM PM PM PM PM PM           
  E  E  E  E  E  E  E  E     E  E  E  E  S  S  E  E  E   
--------------------------|-----------------------------|
--------------------------|-----------------------------|
--------------------------|-----------------------------|
-----------0-----------0--|-----------0--------------0--|
--------0-----------0-----|--------0--------------0-----|
--0--5--------0--5--------|--0--5--------0--0--5--------|


  H        H           H        H           W                 
--------------------|--------------------|-------------------|
--------------------|--------------------|-------------------|
--------------------|--------------------|-------------------|
--------------------|--------------------|-------------------|
--------------------|--------------------|-------------------|
--0--------7--------|--3--------5--------|--0----------------|
_________________________________________________________________
 (Guitar 2 - Rythym)
Come in 4 bars after classical-esque part
   <                                                                     
   H         Q    E   S S    H        Q    Q          H        H         
--------------------------|------------------------|--------------------|
--------------------------|----------------8-------|--L--------L--------|
--12--------10----9--10-9-|--7--------9----5pbr----|--L--------L--------|
--------------------------|------------------------|--------------------|
--------------------------|------------------------|--------------------|
--------------------------|------------------------|--------------------|


                           <                                              
  H.           E  E        H         Q    E   S S    H        Q     Q     
---------------------|----------------------------|----------------------|
--L------------------|----------------------------|----------------------|
--L------------L--L--|--<>12--------10----9--10-9-|--7--------9----10----|
---------------------|----------------------------|----------------------|
---------------------|----------------------------|----------------------|
---------------------|----------------------------|----------------------|


  E    E  H.              W                   E  E  H.            
-----------------------|-------------------|---------------------|
-----------------------|-------------------|---------------------|
--9br--L--L------------|--L----------------|---------------------|
-----------------------|-------------------|--0------------------|
-----------------------|-------------------|--0------------------|
-----------------------|-------------------|--0------------------|


  E  E  E  E  E  E  E.  S    S Q.     S E  Q    S S  
--------------------------|-------------------------|
--------------------------|-------------------------|
--------------------------|-------------------------|
--------------------------|-------------------------|
--0-----0-----0---------3-|--L----------3---------5-|
--0-----0-----0---------3-|--L----------3---------5-|


  S Q    S S S H                   E  H.           E   
------------------------|-------|---------------------|
------------------------|-------|---------------------|
------------------------|-------|---------------------|
------------------------|-------|--0--0---------------|
--L---------------------|-------|--0--0------------L--|
--L----------5----------|-------|--0--0------------L--|


  E  H.           E     E  H.           E     E  H.           E   
---------------------|---------------------|---------------------|
---------------------|---------------------|---------------------|
---------------------|---------------------|---------------------|
--0--0---------------|--2--2------------L--|--2--2------------L--|
--0--0------------L--|--5--5------------L--|--5--5------------L--|
--0--0------------L--|--0--0------------L--|--0--0------------L--|


  E  H.           E     E  H.           E     E  H.           E   
---------------------|---------------------|---------------------|
---------------------|---------------------|---------------------|
---------------------|---------------------|---------------------|
--0--0---------------|--0--0---------------|--0--0------------L--|
--0--0------------L--|--0--0------------L--|--0--0------------L--|
--0--0------------L--|--0--0------------L--|--0--0------------L--|


  E  Q.      E  Q.        E  H.           E     E  H.           E   
-----------------------|---------------------|---------------------|
-----------------------|---------------------|---------------------|
-----------------------|---------------------|---------------------|
--4--4s------7--L------|---------------------|---------------------|
--5--5s------5--L------|--0--0------------L--|--0--0------------L--|
--0--0-------L--L------|--0--0------------L--|--0--0------------L--|


  E  H.           E     E  H.           E     W                 
---------------------|---------------------|-------------------|
---------------------|---------------------|-------------------|
---------------------|---------------------|-------------------|
------------------L--|---------------------|-------------------|
--0--0------------L--|--0--0------------L--|--L----------------|
--0--0------------L--|--0--0------------L--|--L----------------|


  W                   W                   W                 
-------------------|-------------------|-------------------|
-------------------|-------------------|-------------------|
-------------------|-------------------|-------------------|
-------------------|-------------------|-------------------|
--L----------------|--L----------------|--L----------------|
--L----------------|--L----------------|--L----------------|


  Q.     S S E  S E  S E     Q.     S S E  S E  S E   
--------------------------|--------------------------|
--------------------------|--------------------------|
--------------------------|--------------------------|
--------------------------|--------------------------|
---------0-0-0----0----0--|---------0-0-0----0----0--|
---------0-0-0----0----0--|---------0-0-0----0----0--|


  Q.     E  E  S E  S E     E.  E.  E  H           H        H         
-------------------------|----------------------|--------------------|
-------------------------|----------------------|--------------------|
-------------------------|----------------------|--------------------|
-------------------------|----------------------|--------------------|
------------0----0----0--|--0---0---0--L--------|--0--------0--------|
------------0----0----0--|--0---0---0--L--------|--0--------0--------|


  E.  E  S E  H           H        H           E.  E.  E  H         
-----------------------|--------------------|----------------------|
-----------------------|--------------------|----------------------|
-----------------------|--------------------|----------------------|
-----------------------|--------------------|----------------------|
--8---8--8-8--L--------|--8--------8--------|--0---0---0--L--------|
--8---8--8-8--L--------|--8--------8--------|--0---0---0--L--------|


  H        H           E.  E  S E  H           H        H         
--------------------|-----------------------|--------------------|
--------------------|-----------------------|--------------------|
--------------------|-----------------------|--------------------|
--------------------|-----------------------|--------------------|
--0--------0--------|--7---7--7-7--L--------|--7--------7--------|
--0--------0--------|--7---7--7-7--L--------|--7--------7--------|


  E  S S S Q    S E  S S E     E  S S S Q    S E  S S E   
----------------------------|----------------------------|
--3--3-3-3-3----3-3--3-3-3--|--3--3-3-3-3----3-3--3-3-3--|
--2--2-2-2-2----2-2--2-2-2--|--2--2-2-2-2----2-2--2-2-2--|
--0--0-0-0-0----0-0--0-0-0--|--0--0-0-0-0----0-0--0-0-0--|
--0--0-0-0-0----0-0--0-0-0--|--0--0-0-0-0----0-0--0-0-0--|
--0--0-0-0-0----0-0--0-0-0--|--0--0-0-0-0----0-0--0-0-0--|


   E   S  S  S  Q     S  E   S  S  E   
--------------------------------------|
--11--11-11-11-11----11-11--11-11-11--|
--10--10-10-10-10----10-10--10-10-10--|
---8---8--8--8--8-----8--8---8--8--8--|
---8---8--8--8--8-----8--8---8--8--8--|
---8---8--8--8--8-----8--8---8--8--8--|


   E   S  S  S  Q     S  E   S  S  E     E  S S S Q    S E  S S E   
--------------------------------------|----------------------------|
--11--11-11-11-11----11-11--11-11-11--|--3--3-3-3-3----3-3--3-3-3--|
--10--10-10-10-10----10-10--10-10-10--|--2--2-2-2-2----2-2--2-2-2--|
---8---8--8--8--8-----8--8---8--8--8--|--0--0-0-0-0----0-0--0-0-0--|
---8---8--8--8--8-----8--8---8--8--8--|--0--0-0-0-0----0-0--0-0-0--|
---8---8--8--8--8-----8--8---8--8--8--|--0--0-0-0-0----0-0--0-0-0--|


  E  S S S Q    S E  S S E      E   S  S  S  Q     S  E   S  S  E   
----------------------------|--------------------------------------|
--3--3-3-3-3----3-3--3-3-3--|--10--10-10-10-10----10-10--10-10-10--|
--2--2-2-2-2----2-2--2-2-2--|---9---9--9--9--9-----9--9---9--9--9--|
--0--0-0-0-0----0-0--0-0-0--|---7---7--7--7--7-----7--7---7--7--7--|
--0--0-0-0-0----0-0--0-0-0--|---7---7--7--7--7-----7--7---7--7--7--|
--0--0-0-0-0----0-0--0-0-0--|---7---7--7--7--7-----7--7---7--7--7--|


   E   S  S  S  Q     S  E   S  S  E     E  E  E  E  E  E  E  E   
--------------------------------------|--------------------------|
--10--10-10-10-10----10-10--10-10-10--|--------------------------|
---9---9--9--9--9-----9--9---9--9--9--|--------------------------|
---7---7--7--7--7-----7--7---7--7--7--|--0-----------0-----------|
---7---7--7--7--7-----7--7---7--7--7--|--0-----------0-----------|
---7---7--7--7--7-----7--7---7--7--7--|--0-----------0-----------|


  E  E  E  E  E  E  E.  S    S S E  E  E  Q    S S E   
--------------------------|---------------------------|
--------------------------|---------------------------|
--------------------------|---------------------------|
--------------------------|---------------------------|
--0-----0-----0---------3-|--L-3-3--3--3--3----3-0-5--|
--0-----0-----0---------3-|--L-3-3--3--3--3----3-0-5--|


  Q    S S E  E  E  Q               E   E  E   E  E   E  E   E   
-------------------------|-------|------------------------------|
-------------------------|-------|------------------------------|
-------------------------|-------|------------------------------|
-------------------------|-------|--3h--5--3h--5--3h--5--3h--5--|
--5----5-5-5--5--5--5----|-------|------------------------------|
--5----5-5-5--5--5--5----|-------|------------------------------|


  E  E  E  E  E  E  E  E     E  E  E  E  E  E  E.  S  
--------------------------|--------------------------|
--------------------------|--------------------------|
--------------------------|--------------------------|
--0-----------0-----------|--------------------------|
--0-----------0-----------|--0-----0-----0---------3-|
--0-----------0-----------|--0-----0-----0---------3-|


  S S E  E  E  Q    S S E     Q    S S S E  E  S S S Q.       
---------------------------|---------------------------------|
---------------------------|---------------------------------|
---------------------------|---------------------------------|
---------------------------|---------------------------------|
--L-3-3--3--3--3----3-3-5--|--5----5-5-5-5--5--5-5-5-5\------|
--L-3-3--3--3--3----3-3-5--|--5----5-5-5-5--5--5-5-5-5\------|


  PM PM PM PM                PM PM PM PM              
  E  E  E  E  E  E  E  E     E  E  E  E  E  E  E  E   
--------------------------|--------------------------|
--------------------------|--------------------------|
--------------------------|--------------------------|
--------------------------|--------------------------|
--3--2--3--5--------------|--3--2--3--5--------------|
--3--2--3--5--------------|--3--2--3--5--------------|


  PM PM PM PM    PM    PM                               
  E  E  E  E  E  E  E  E     E.  E  S S S E.  E  S S S  
--------------------------|----------------------------|
--------------------------|----------------------------|
--------------------------|----------------------------|
--------------------------|------------------------4-7-|
--3--2--3--5-----2-----3--|--0---0--------2---2--2-----|
--3--2--3--5-----2-----5--|--0---0--0-4-7--------------|


                                PM PM PM PM              
  E.  E  S S S S S S S Q        E  E  E  E  E  E  E  E   
-----------------------------|--------------------------|
-----------------------7\----|--------------------------|
--4---4--4-7-7-5-4-5-7-------|--------------------------|
-----------------------------|--------------------------|
-----------------------------|--3--2--3--5--------------|
-----------------------------|--3--2--3--5--------------|


  PM PM PM PM                PM PM PM PM    PM    PM  
  E  E  E  E  E  E  E  E     E  E  E  E  E  E  E  E   
--------------------------|--------------------------|
--------------------------|--------------------------|
--------------------------|--------------------------|
--------------------------|--------------------------|
--3--2--3--5--------------|--3--2--3--5-----2-----3--|
--3--2--3--5--------------|--3--2--3--5-----2-----5--|


  PM PM    PM PM PM    PM    PM PM    PM PM         
  E  E  E  E  E  E  E  E     E  E  E  E  E  Q.      
--------------------------|------------------------|
--------------------------|------------------------|
--------------------------|------------------------|
--------------------------|------------------------|
--0--0-----0--0--0-----0--|--0--0-----0--0--0------|
--0--0-----0--0--0-----0--|--0--0-----0--0--0------|


  PM PM    PM PM PM    PM    PM PM    PM PM         
  E  E  E  E  E  E  E  E     E  E  E  E  E  Q.      
--------------------------|------------------------|
--------------------------|------------------------|
--------------------------|------------------------|
--------------------------|------------------------|
--8--8-----8--8--8-----8--|--8--8-----8--8--8------|
--8--8-----8--8--8-----8--|--8--8-----8--8--8------|


  PM PM    PM PM PM    PM    PM PM    PM PM         
  E  E  E  E  E  E  E  E     E  E  E  E  E  Q.      
--------------------------|------------------------|
--------------------------|------------------------|
--------------------------|------------------------|
--------------------------|------------------------|
--0--0-----0--0--0-----0--|--0--0-----0--0--0------|
--0--0-----0--0--0-----0--|--0--0-----0--0--0------|


  PM PM    PM PM PM    PM    PM PM    PM PM         
  E  E  E  E  E  E  E  E     E  E  E  E  E  Q.      
--------------------------|------------------------|
--------------------------|------------------------|
--------------------------|------------------------|
--------------------------|------------------------|
--7--7-----7--7--7-----7--|--7--7-----7--7--7------|
--7--7-----7--7--7-----7--|--7--7-----7--7--7------|


  PM PM    PM PM PM    PM    PM PM    PM PM         
  E  E  E  E  E  E  E  E     E  E  E  E  E  Q.      
--------------------------|------------------------|
--------------------------|------------------------|
--------------------------|------------------------|
--------------------------|------------------------|
--0--0-----0--0--0-----0--|--0--0-----0--0--0------|
--0--0-----0--0--0-----0--|--0--0-----0--0--0------|


  PM PM    PM PM PM    PM    PM PM    PM PM         
  E  E  E  E  E  E  E  E     E  E  E  E  E  Q.      
--------------------------|------------------------|
--------------------------|------------------------|
--------------------------|------------------------|
--------------------------|------------------------|
--8--8-----8--8--8-----8--|--8--8-----8--8--8------|
--8--8-----8--8--8-----8--|--8--8-----8--8--8------|


  PM PM    PM PM PM    PM    PM PM    PM PM         
  E  E  E  E  E  E  E  E     E  E  E  E  E  Q.      
--------------------------|------------------------|
--------------------------|------------------------|
--------------------------|------------------------|
--------------------------|------------------------|
--0--0-----0--0--0-----0--|--0--0-----0--0--0------|
--0--0-----0--0--0-----0--|--0--0-----0--0--0------|


  PM PM    PM PM PM    PM    PM PM    PM PM         
  E  E  E  E  E  E  E  E     E  E  E  E  E  Q.      
--------------------------|------------------------|
--------------------------|------------------------|
--------------------------|------------------------|
--------------------------|------------------------|
--7--7-----7--7--7-----7--|--7--7-----7--7--7------|
--7--7-----7--7--7-----7--|--7--7-----7--7--7------|


  E  E  E  E  E  E  E  E     E  E  E  E  E  E  E  E   
--------------------------|--------------------------|
--7--7--7--7--7--7--7--7--|--7--7--7--7--7--7--7--7--|
--7--7--7--7--7--7--7--7--|--7--7--7--7--7--7--7--7--|
--7--7--7--7--7--7--7--7--|--7--7--7--7--7--7--7--7--|
--5--5--5--5--5--5--5--5--|--5--5--5--5--5--5--5--5--|
--0--0--0--0--0--0--0--0--|--0--0--0--0--0--0--0--0--|


  E  E  E  E  E  E  E  E     E  E  E  E  E  E  E  E   
--------------------------|--------------------------|
--7--5--5--5--5--5--5--5--|--5--5--5--5--5--5--5--5--|
--7--5--5--5--5--5--5--5--|--5--5--5--5--5--5--5--5--|
--7--5--5--5--5--5--5--5--|--5--5--5--5--5--5--5--5--|
--5--3--3--3--3--3--3--3--|--3--3--3--3--3--3--3--3--|
--------------------------|--------------------------|


  E  E  E  E  E  E  E  E     E  E  E  E  E  E  E  E   
--------------------------|--------------------------|
--5--3--3--3--3--3--3--3--|--3--3--3--3--3--3--3--3--|
--5--3--3--3--3--3--3--3--|--3--3--3--3--3--3--3--3--|
--5--3--3--3--3--3--3--3--|--3--3--3--3--3--3--3--3--|
--3--1--1--1--1--1--1--1--|--1--1--1--1--1--1--1--1--|
--------------------------|--------------------------|


  E  E  E  E  E  E  E  E     H        H           E  Q.     E  Q.      
--------------------------|--5--------4--------|----------------------|
--------------------------|--6--------5--------|--7--7------7--7------|
--4--4--4--4--4--4--4--4--|--------------------|--7--7------7--7------|
--5--5--5--5--5--5--5--5--|--------------------|--7--7------7--7------|
--5--5--5--5--5--5--5--5--|--------------------|--5--5------5--5------|
--5--5--5--5--5--5--5--5--|--------------------|--0--0------0--0------|


  E  Q.     E  Q.        E  Q.     E  Q.        E  Q.     E  Q.      
----------------------|----------------------|----------------------|
--7--7------7--7------|--7--5------5--5------|--5--5------5--5------|
--7--7------7--7------|--7--5------5--5------|--5--5------5--5------|
--7--7------7--7------|--7--5------5--5------|--5--5------5--5------|
--5--5------5--5------|--5--3------3--3------|--3--3------3--3------|
--0--0------0--0------|----------------------|----------------------|


  E  Q.     E  Q.        E  Q.     E  Q.        E  Q.     E  Q.      
----------------------|----------------------|----------------------|
--5--3------3--3------|--3--3------3--3------|----------------------|
--5--3------3--3------|--3--3------3--3------|--4--4------4--4------|
--5--3------3--3------|--3--3------3--3------|--5--5------5--5------|
--3--1------1--1------|--1--1------1--1------|--5--5------5--5------|
----------------------|----------------------|--5--5------5--5------|


                       PM PM PM PM PM PM PM PM PM  
  H        H           E  E  E  E  S  S  E  E  E   
--------------------|-----------------------------|
--------------------|-----------------------------|
--------------------|-----------------------------|
--3--------2--------|-----------0--------------0--|
--3--------2--------|--------0--------------0-----|
--3--------2--------|--0--5--------0--0--5--------|


  PM PM PM PM PM PM PM PM PM    PM PM PM PM PM PM PM PM PM  
  E  E  E  E  S  S  E  E  E     S  S  E  E  E  E  E  E  E   
-----------------------------|-----------------------------|
-----------------------------|-----------------------------|
-----------------------------|-----------------------------|
-----------0--------------0--|--------------0-----------0--|
--------0--------------0-----|-----------0-----------0-----|
--0--5--------0--0--5--------|--0--0--5--------0--5--------|


  PM PM PM PM PM PM PM PM PM PM PM    PM PM PM PM PM PM PM PM  
  S  S  S  S  S  S  E  E  E  E  E     E  E  E  E  E  E  E  E   
-----------------------------------|--------------------------|
-----------------------------------|--------------------------|
-----------------------------------|--------------------------|
--x-----x-----x--x--0-----------0--|-----------0-----------0--|
--x--x--x-----0--0-----------0-----|--------0-----------0-----|
--0--0--5--5--x-----x--0--5--------|--0--5--------0--5--------|


  PM PM PM PM PM PM PM PM PM                                            
  E  E  E  E  S  S  E  E  E     H        H           H        H         
-----------------------------|--------------------|--------------------|
-----------------------------|--------------------|--------------------|
-----------------------------|--------------------|--------------------|
-----------0--------------0--|--0--------7--------|--3--------5--------|
--------0--------------0-----|--0--------7--------|--3--------3--------|
--0--5--------0--0--5--------|--0--------7--------|--3--------5--------|


  W                   W                   W                 
-------------------|-------------------|-------------------|
-------------------|-------------------|-------------------|
-------------------|-------------------|-------------------|
--0----------------|--L----------------|--L----------------|
--0----------------|--L----------------|--L----------------|
--0----------------|--L----------------|--L----------------|


Enjoy :)
    -Silfrgluggr



Duration Legend
---------------
W - whole
H - half
Q - quarter
E - 8th
S - 16th
T - 32nd
X - 64th
. - note dotted
|-n-|  - n-tuplets


Tablature Legend
----------------
L - tied note
x - dead note
g - grace note
(n) - ghost note
> - accentuded note
NH - natural harmonic
AH - artificial harmonic
TH - tapped harmonic
SH - semi harmonic
PH - pitch harmonic
h - hammer on
p - pull off
b - bend
br - bendRelease
pb - preBend
pbr - preBendRelease
brb - bendReleaseBend
\n/ - tremolo bar dip
\n - tremolo bar dive
-/n - tremolo bar Release up
/n\ - tremolo bar inverted dip
/n - tremolo bar return
-\n - tremolo bar Release down
S - shift slide
s - legato slide
/ -  slide into from below or out of upwards
\ -  slide into from above or out of downwards
~ - vibrato
W - wide vibrato
tr - trill
TP - tremolo picking
T - tapping
S - slap
P - pop
< - fade in
^ - brush up
v - brush down


Tap to rate this tab
 
# A B C D E F G H I J K L M N O P Q R S T U V W X Y Z