Song name
# A B C D E F G H I J K L M N O P Q R S T U V W X Y Z

Stemage - Ground Pink tab

                                  Ground Pink                                   

official Stemage website;www.stemage.com

this tab was not written by me, it was written by Wilson of www.MetroidMetal.com

Track 1
     |-3-| |-3-| |-3-| |-3-| |-3-| |-3-|                                  
     S S S S S S S S S S S S S S S S S S Q       S S S S Q    Q.     S S  
E||-------------------------------------------|----1---1-1---------------|
B||-------------------------------------------|----1---1-1----1------L---|
G||----------0-2---------0-2---------0-2------|---------------0------L---|
D||------0-----------0-----------0-------0----|----3---3-3---------------|
A||----3---0-------3---0-------3---0-----0----|---------------3------L---|
E||-------------------------------------------|---------------0------L---|


     |-3-| |-3-| |-3-| |-3-| |-3-|                                        
  E  S S S S S S S S S S S S S S S Q       S S S S S S S S S S S S S E.   
----------------------------------------|--------------------------------|
----------------------------------------|------------------1---1---1-3---|
-------0-2---------0-2---------0-2------|--3-3-3---3-3-3---0---------0---|
---------------0-----------0-------0----|--3-3-3---3-3-3-------3---3-0---|
-----0-------3---0-------3---0-----0----|--1-1-1---1-1-1---3---3---3-----|
----------------------------------------|----------------------1---1-3---|


  |-3-| |-3-| |-3-| |-3-| |-3-| |-3-|                                  
  S S S S S S S S S S S S S S S S S S Q       S S S S Q    E  E  Q     
-------------------------------------------|----1---1-1----0--1--0----|
-------------------------------------------|----1---1-1---------------|
----------0-2---------0-2---------0-2------|---------------2--3--2----|
------0-----------0-----------0-------0----|----3---3-3----2--3--2----|
----3---0-------3---0-------3---0-----0----|---------------0--1--0----|
-------------------------------------------|--------------------------|


  |-3-| |-3-| |-3-| |-3-| |-3-| |-3-|            |-3-|       |-3-|    |-3-|     
  S S S S S S S S S S S S S S S S S S Q       E  S S S E  E  S S S E  S S S E   
-------------------------------------------|-----------------------------------|
-------------------------------------------|-----------------------------------|
----------0-2---------0-2---------0-2------|-----------------------------------|
------0-----------0-----------0-------0----|-----------2-----------0--------2--|
----3---0-------3---0-------3---0-----0----|---------0-----------0--------0----|
-------------------------------------------|-------3-----------3--------3------|


  |-3-| |-3-| |-3-| |-3-| |-3-| |-3-|                                  
  S S S S S S S S S S S S S S S S S S Q       S S S S Q    Q.     S S  
-------------------------------------------|----1---1-1---------------|
-------------------------------------------|----1---1-1----1------L---|
----------0-2---------0-2---------0-2------|---------------0------L---|
------0-----------0-----------0-------0----|----3---3-3---------------|
----3---0-------3---0-------3---0-----0----|---------------3------L---|
-------------------------------------------|---------------0------L---|


     |-3-| |-3-| |-3-| |-3-| |-3-|                                        
  E  S S S S S S S S S S S S S S S Q       S S S S S S S S S S S S S E.   
----------------------------------------|--------------------------------|
----------------------------------------|------------------1---1---1-3---|
-------0-2---------0-2---------0-2------|--3-3-3---3-3-3---0---------0---|
---------------0-----------0-------0----|--3-3-3---3-3-3-------3---3-0---|
-----0-------3---0-------3---0-----0----|--1-1-1---1-1-1---3---3---3-----|
----------------------------------------|----------------------1---1-3---|


  |-3-| |-3-| |-3-| |-3-| |-3-| |-3-|                                  
  S S S S S S S S S S S S S S S S S S Q       S S S S Q    E  E  Q     
-------------------------------------------|----1---1-1----0--1--0----|
-------------------------------------------|----1---1-1---------------|
----------0-2---------0-2---------0-2------|---------------2--3--2----|
------0-----------0-----------0-------0----|----3---3-3----2--3--2----|
----3---0-------3---0-------3---0-----0----|---------------0--1--0----|
-------------------------------------------|--------------------------|


  |-3-| |-3-| |-3-| |-3-| |-3-| |-3-|            |-3-|       |-3-|             
  S S S S S S S S S S S S S S S S S S Q       E  S S S E  E  S S S E  S S S S  
-------------------------------------------|----------------------------------|
-------------------------------------------|----------------------------------|
----------0-2---------0-2---------0-2------|----------------------------------|
------0-----------0-----------0-------0----|-----------2-----------0--2-3-2---|
----3---0-------3---0-------3---0-----0----|---------0-----------0----0-1-0-0-|
-------------------------------------------|-------3-----------3--------------|


  S S S S S S S S S S S S S S S S    S S S S S S S S S S S S E  E   
----------------------------------|--------------------------------|
----------------------------------|--------------------------------|
--2-3-2---------------------------|--2-3-2-------------------------|
--0-1-0---0---------------0---0---|--0-1-0---0---------------0-----|
--------0---6-0-0---0---0---6---0-|--------0---6-0-0---0---0----6--|
----------3-4-------------3-4-3---|----------3-4-------------3--4--|


  S S S S S S S S S S S S S S S S    S S S S S S S S S S S S S S E   
----------------------------------|---------------------------------|
----------------------------------|---------------------------------|
--2-3-2---------------------------|--2-3-2--------------------------|
--0-1-0---0---------------0---0---|--0-1-0---0-----------------0----|
--------0---6-0-0---0---0---6---0-|--------0---6-0-0---0---0-4---0--|
----------3-4-------------3-4-3---|----------3-4-------------2-3----|


  S S E  S S E     S S S S S S S S S S S S S S S S  
----------------|----------------------------------|
----------------|----------------------------------|
----------------|----------------------------------|
----0------0----|----------0-----------------------|
--4---0--4---0--|--0-1-0-0---6-0-0---0---0-0-1-0-0-|
--2-3----2-3----|----------3-4---------------------|


  S S S S S S S S S S S S S S S S    S S S S S S S S S S S S S S S S  
----------------------------------|----------------------------------|
----------------------------------|----------------------------------|
----------------------------------|----------------------------------|
----------0---------------1-0-----|----------0-----------------------|
--0-1-0-0---6-0-0---0---0---------|--0-1-0-0---6-0-0---0---0-0-1-0-0-|
----------3-4-----------------4-3-|----------3-4---------------------|


  S S S S S S S S S S S S S S E     S S E  S S E     E  E  H.            
---------------------------------|----------------|---------------------|
---------------------------------|----------------|---------------------|
---------------------------------|----------------|---------------------|
----------0-----------------0----|----0------0----|--0--0---------------|
--0-1-0-0---6-0-0---0---0-4---0--|--4---0--4---0--|--0--0---------------|
----------3-4-------------2-3----|--2-3----2-3----|---------------------|


  S S S S S S S S S S S S S S E     E  S S E  S S E  S S E  E   
---------------------------------|-----------------------------|
---------------------------------|-----------------------------|
---------------------------------|-----------------------------|
----------0---------------0------|--4----4-4----4-4----4-4--4--|
----3-0-3---3-0-3---3-0-3---3-0--|--5----5-5----5-5----5-5--5--|
----1---1---1---1---1---1---1----|--2----2-2----2-2----2-2--2--|


  S E  S S E  S S E  S S E  S    S S E  S S E  S S E  S S E   
------------------------------|------------------------------|
--3-3--3-2-2--2-0-0--0-0-0--0-|------------------------------|
--4-4--4-4-4--4-4-4--4-2-2--2-|------------------------------|
--0-0--0-0-0--0-0-0--0-0-0--0-|------0------0------0------0--|
--5-5--5-4-4--4-2-2--2-0-0--0-|----0------0------0------0----|
------------------------------|------------------------------|


  S S S S S S S S S S S S S S E     E  S S E  S S E  S S E  E   
---------------------------------|-----------------------------|
---------------------------------|-----------------------------|
---------------------------------|-----------------------------|
----------0---------------0------|--4----4-4----4-4----4-4--4--|
----3-0-3---3-0-3---3-0-3---3-0--|--5----5-5----5-5----5-5--5--|
----1---1---1---1---1---1---1----|--2----2-2----2-2----2-2--2--|


  S E  S S E  S S E  S S E  S    S S E  S S E  S S E  S S E   
------------------------------|------------------------------|
--3-3--3-2-2--2-0-0--0-0-0--0-|------------------------------|
--4-4--4-4-4--4-4-4--4-2-2--2-|------------------------------|
--0-0--0-0-0--0-0-0--0-0-0--0-|------0------0------0------0--|
--5-5--5-4-4--4-2-2--2-0-0--0-|----0------0------0------0----|
------------------------------|------------------------------|


  |-3-| |-3-| |-3-| |-3-| |-3-| |-3-|                                  
  S S S S S S S S S S S S S S S S S S Q       S S S S Q    Q.     S S  
-------------------------------------------|----1---1-1---------------|
-------------------------------------------|----1---1-1----1------L---|
----------0-2---------0-2---------0-2------|---------------0------L---|
------0-----------0-----------0-------0----|----3---3-3---------------|
----3---0-------3---0-------3---0-----0----|---------------3------L---|
-------------------------------------------|---------------0------L---|


     |-3-| |-3-| |-3-| |-3-| |-3-|                                        
  E  S S S S S S S S S S S S S S S Q       S S S S S S S S S S S S S E.   
----------------------------------------|--------------------------------|
----------------------------------------|------------------1---1---1-3---|
-------0-2---------0-2---------0-2------|--3-3-3---3-3-3---0---------0---|
---------------0-----------0-------0----|--3-3-3---3-3-3-------3---3-0---|
-----0-------3---0-------3---0-----0----|--1-1-1---1-1-1---3---3---3-----|
----------------------------------------|----------------------1---1-3---|


  |-3-| |-3-| |-3-| |-3-| |-3-| |-3-|                                  
  S S S S S S S S S S S S S S S S S S Q       S S S S Q    E  E  Q     
-------------------------------------------|----1---1-1----0--1--0----|
-------------------------------------------|----1---1-1---------------|
----------0-2---------0-2---------0-2------|---------------2--3--2----|
------0-----------0-----------0-------0----|----3---3-3----2--3--2----|
----3---0-------3---0-------3---0-----0----|---------------0--1--0----|
-------------------------------------------|--------------------------|


  |-3-| |-3-| |-3-| |-3-| |-3-| |-3-|            |-3-|       |-3-|             
  S S S S S S S S S S S S S S S S S S Q       E  S S S E  E  S S S E  S S S S  
-------------------------------------------|----------------------------------|
-------------------------------------------|----------------------------------|
----------0-2---------0-2---------0-2------|----------------------------------|
------0-----------0-----------0-------0----|-----------2-----------0--2-3-2---|
----3---0-------3---0-------3---0-----0----|---------0-----------0----0-1-0-0-|
-------------------------------------------|-------3-----------3--------------|


  S S S S S S S S S S S S S S S S    S S S S S S S S S S S S E  E   
----------------------------------|--------------------------------|
----------------------------------|--------------------------------|
--2-3-2---------------------------|--2-3-2-------------------------|
--0-1-0---0---------------0---0---|--0-1-0---0---------------0-----|
--------0---6-0-0---0---0---6---0-|--------0---6-0-0---0---0----6--|
----------3-4-------------3-4-3---|----------3-4-------------3--4--|


  S S S S S S S S S S S S S S S S    S S S S S S S S S S S S S S E   
----------------------------------|---------------------------------|
----------------------------------|---------------------------------|
--2-3-2---------------------------|--2-3-2--------------------------|
--0-1-0---0---------------0---0---|--0-1-0---0-----------------0----|
--------0---6-0-0---0---0---6---0-|--------0---6-0-0---0---0-4---0--|
----------3-4-------------3-4-3---|----------3-4-------------2-3----|


  S S E  S S E     S S S S S S S S S S S S S S S S  
----------------|----------------------------------|
----------------|----------------------------------|
----------------|----------------------------------|
----0------0----|----------0-----------------------|
--4---0--4---0--|--0-1-0-0---6-0-0---0---0-0-1-0-0-|
--2-3----2-3----|----------3-4---------------------|


  S S S S S S S S S S S S S S S S    S S S S S S S S S S S S S S S S  
----------------------------------|----------------------------------|
----------------------------------|----------------------------------|
----------------------------------|----------------------------------|
----------0---------------1-0-----|----------0-----------------------|
--0-1-0-0---6-0-0---0---0---------|--0-1-0-0---6-0-0---0---0-0-1-0-0-|
----------3-4-----------------4-3-|----------3-4---------------------|


  S S S S S S S S S S S S S S E     S S E  S S E     E  E  H.            
---------------------------------|----------------|---------------------|
---------------------------------|----------------|---------------------|
---------------------------------|----------------|---------------------|
----------0-----------------0----|----0------0----|--0--0---------------|
--0-1-0-0---6-0-0---0---0-4---0--|--4---0--4---0--|--0--0---------------|
----------3-4-------------2-3----|--2-3----2-3----|---------------------|


  S S S S S S S S S S S S S S E     E  S S E  S S E  S S E  E   
---------------------------------|-----------------------------|
---------------------------------|-----------------------------|
---------------------------------|-----------------------------|
----------0---------------0------|--4----4-4----4-4----4-4--4--|
----3-0-3---3-0-3---3-0-3---3-0--|--5----5-5----5-5----5-5--5--|
----1---1---1---1---1---1---1----|--2----2-2----2-2----2-2--2--|


  S E  S S E  S S E  S S E  S    S S E  S S E  S S E  S S E   
------------------------------|------------------------------|
--3-3--3-2-2--2-0-0--0-0-0--0-|------------------------------|
--4-4--4-4-4--4-4-4--4-2-2--2-|------------------------------|
--0-0--0-0-0--0-0-0--0-0-0--0-|------0------0------0------0--|
--5-5--5-4-4--4-2-2--2-0-0--0-|----0------0------0------0----|
------------------------------|------------------------------|


  S S S S S S S S S S S S S S E     E  S S E  S S E  S S E  E   
---------------------------------|-----------------------------|
---------------------------------|-----------------------------|
---------------------------------|-----------------------------|
----------0---------------0------|--4----4-4----4-4----4-4--4--|
----3-0-3---3-0-3---3-0-3---3-0--|--5----5-5----5-5----5-5--5--|
----1---1---1---1---1---1---1----|--2----2-2----2-2----2-2--2--|


  S E  S S E  S S E  S S E  S    S E  S S E  S  S  E   S  S E  S  
------------------------------|---------0-0--0-------------------|
--3-3--3-2-2--2-0-0--0-0-0--0-|--3-3--3-0-0--0--0--0---0--0-0--0-|
--4-4--4-4-4--4-4-4--4-2-2--2-|--4-4--4--------11-11--11-11-2--2-|
--0-0--0-0-0--0-0-0--0-0-0--0-|--0-0--0-0-0--0--0--0---0--0-0--0-|
--5-5--5-4-4--4-2-2--2-0-0--0-|--5-5--5-7-7--7--9--9---9--9-0--0-|
------------------------------|----------------------------------|


  S E  S S E  S S E  S S E  S    S S E  S S E  S S E  S S E   
------------------------------|------------------------------|
--3-3--3-2-2--2-0-0--0-0-0--0-|------------------------------|
--4-4--4-4-4--4-4-4--4-2-2--2-|------------------------------|
--0-0--0-0-0--0-0-0--0-0-0--0-|------0------0------0------0--|
--5-5--5-4-4--4-2-2--2-0-0--0-|----0------0------0------0----|
------------------------------|------------------------------|


  S S E  S S E  S S E  S S E     S S E  S S E  S S E  S S E   
------------------------------|------------------------------|
------------------------------|------------------------------|
------------------------------|------------------------------|
------0------0------0------0--|------0------0------0------0--|
----0------0------0------0----|----0------0------0------0----|
------------------------------|------------------------------|


  S S E  S S E  S S E  S S E     S S E  S S E  S S E  S S E   
------------------------------|------------------------------|
------------------------------|------------------------------|
------------------------------|------------------------------|
------0------0------0------0--|------0------0------0------0--|
----0------0------0------0----|----0------0------0------0----|
------------------------------|------------------------------|


  S S E  S S E  S S E  S S E     S S E  S S E  S S E  S S E   
------------------------------|------------------------------|
------------------------------|------------------------------|
------------------------------|------------------------------|
------0------0------0------0--|------0------0------0------0--|
----0------0------0------0----|----0------0------0------0----|
--2------2------2------2------|--3------3------3------3------|


  S S E  S S E  S S E  S S E     S S E  S S E  S S E  S S E   
------------------------------|------------------------------|
------------------------------|------------------------------|
------------------------------|------------------------------|
------0------0------0------0--|------------------------------|
----0------0------0------0----|------3------3------3------3--|
--0------0------0------0------|----1------1------1------1----|


  S S E  S S E  S S E  S S E     S S E  S S E  S S E  S S E   
------------------------------|------------------------------|
------------------------------|------------------------------|
------------------------------|------------------------------|
------------------------------|------------------------------|
------3------3------3------3--|------2------2------2------2--|
----2------2------2------2----|----3------3------3------3----|


  S S E  S S E  S S E  S S E     S S E  S S E  S S E  S S E   
------------------------------|------------------------------|
------------------------------|------------------------------|
------------------------------|------------------------------|
------------------------------|------0------0------0------0--|
------2------2------2------2--|----0------0------0------0----|
----4------4------4------4----|------------------------------|


  S S E  S S E  S S E  S S E     S S E  S S E  S S E  S S E   
------------------------------|------------------------------|
------------------------------|------------------------------|
------------------------------|------------------------------|
------0------0------0------0--|------0------0------0------0--|
----0------0------0------0----|----0------0------0------0----|
--2------2------2------2------|--3------3------3------3------|


  S S E  S S E  S S E  S S E     S S E  S S E  S S E  S S E   
------------------------------|------------------------------|
------------------------------|------------------------------|
------------------------------|------------------------------|
------0------0------0------0--|------------------------------|
----0------0------0------0----|------3------3------3------3--|
--0------0------0------0------|----1------1------1------1----|


  S S E  S S E  S S E  S S E     S S E  S S E  S S E  S S E   
------------------------------|------------------------------|
------------------------------|------------------------------|
------------------------------|------------------------------|
------------------------------|------------------------------|
------3------3------3------3--|--2-2-2--2-2-2--2-2-2--2-2-2--|
----2------2------2------2----|------3------3------3------3--|


  S S S S S S S S S S S S S S S S    S S S S S S    S S S S S S    S S S S S S  
----------------------------------|--------------|--------------|--------------|
----------------------------------|--------------|--------------|--------------|
----------------------------------|--------------|--------------|--------------|
----------------------------------|----4-0---4-0-|----2-----2---|------------0-|
--2-2-2-2-2-2-2-2-2-2-2-2-2-2-2-2-|--------------|------3-----3-|----3-----3---|
------4-4-----4-4-----4-4-----4-4-|--------------|--------------|--------1-----|


                      |-3-| |-3-| |-3-| |-3-| |-3-| |-3-|       
  W                   S S S S S S S S S S S S S S S S S S Q     
-------------------|-------------------------------------------|
-------------------|-------------------------------------------|
--0----------------|----------0-2---------0-2---------0-2------|
-------------------|------0-----------0-----------0-------0----|
--3----------------|----3---0-------3---0-------3---0-----0----|
--1----------------|-------------------------------------------|


  S S S S Q    Q.     S S    S S E  H        Q      
----1---1-1-------------0-|--L--------------------||
----1---1-1----1------L-0-|--L-3-3----------------||
---------------0------L---|----2-2----------------||
----3---3-3-------------2-|--L-0-0----------------||
----1---1-1----3------L---|-----------------------||
---------------0------L---|----2-2----------------||




Duration Legend
---------------
W - whole
H - half
Q - quarter
E - 8th
S - 16th
T - 32nd
X - 64th
. - note dotted
|-n-|  - n-tuplets


Tablature Legend
----------------
L - tied note
x - dead note
g - grace note
(n) - ghost note
> - accentuded note
NH - natural harmonic
AH - artificial harmonic
TH - tapped harmonic
SH - semi harmonic
PH - pitch harmonic
h - hammer on
p - pull off
b - bend
br - bendRelease
pb - preBend
pbr - preBendRelease
brb - bendReleaseBend
\n/ - tremolo bar dip
\n - tremolo bar dive
-/n - tremolo bar Release up
/n\ - tremolo bar inverted dip
/n - tremolo bar return
-\n - tremolo bar Release down
S - shift slide
s - legato slide
/ -  slide into from below or out of upwards
\ -  slide into from above or out of downwards
~ - vibrato
W - wide vibrato
tr - trill
TP - tremolo picking
T - tapping
S - slap
P - pop
< - fade in
^ - brush up
v - brush down
Tap to rate this tab
# A B C D E F G H I J K L M N O P Q R S T U V W X Y Z