Song name
# A B C D E F G H I J K L M N O P Q R S T U V W X Y Z

Stemm - Numb tab

----------------------------------------------------------------------------
			     Numb - Stemm                                  
http://svr36.ehostpros.com/~stemmn36/stemm/      Official Stemm Website
---------------------------------------------------------------------------
Tabbed by:Jared Haggard
Email:jredhaggard_13@hotmail.com

Tuning:

e|-------------------------------------------------------------------------|
B|-------------------------------------------------------------------------|
G|-------------------------------------------------------------------------|
D|-------------------------------------------------------------------------|
A|----5-5-5----3---5-6---3---5---3---5---6---6~----------------------------|
E|----5-5-5--------------3-------------------------------------------------|
      x x x              x
e|-------------------------------------------------------------------------|
B|-------------------------------------------------------------------------|
G|-------------------------------------------------------------------------|
D|-------------------------------------------------------------------------|
A|----5-5-5----3---5-6---3---5/6---6-6-5-5-3~------------------------------|
E|----5-5-5----------------------------------------------------------------|
      x x x

| /  slide up
| \  slide down
| h  hammer-on
| p  pull-off
| ~  vibrato
| +  harmonic
| x  Mute note
Tap to rate this tab
# A B C D E F G H I J K L M N O P Q R S T U V W X Y Z