Song name
# A B C D E F G H I J K L M N O P Q R S T U V W X Y Z

Stemm - Face The Pain tab

-------------------------------------------------------------------------------
Face The Pain - Stemm
-------------------------------------------------------------------------------
Tabbed by: brutalmetal
Email: markoacha@yahoo.com

Tuning: Drop C#

Intro

Gtr II
D#|----------------|----------------|-----------------|----------------------|
A#|----------------|----------------|-----------------|----------------------|
F#|----------------|--7-7-7--8-8----|-5-55h7-7-------|----------------------|
C#|----------------|----------------|-----------------|----------------------|
G#|----------------|----------------|-----------------|----------------------|
C#|----------------|----------------|-----------------|----------------------|X4
                    PM   PM     PM     PM    PM
       Im not sure how many times you need to pluck it. Just try to figure it out.


Breakdown

Gtrs I & II
D#|----------------|----------------|-----------------|-------------------------|
A#|----------------|----------------|-----------------|-------------------------|
F#|------7-7-7-7---|-8-8-8-8-8-8-8--|-X3--------------|---7-7-7-7---------------|
C#|-0----7-7-7-7---|-8-8-8-8-8-8-8--|-----------------|-0-7-7-7-7---------------|
G#|-0--------------|----------------|-----------------|-0-----------5h65h6-5h6-|
C#|-0--------------|----------------|-----------------|-0-----------------------|X2

Verse

Gtr I
D#|----------------|----------------|-----------------|----------------------|
A#|----------------|----------------|-----------------|----------------------|
F#|----------------|----------------|-----------------|----------------------|
C#|-0--------------|----------------|-----------------|----------------------|
G#|-0--------------|----------------|-----------------|----------------------|
C#|-0--------------|----------------|-----------------|----------------------|


Gtr II
D#|----------------|----------------|-----------------|----------------------|
A#|----------------|----------------|-----------------|----------------------|
F#|----------------|--7-7-7--8-8-8--|-5-55h7-7-------|----------------------|
C#|----------------|----------------|-----------------|----------------------|
G#|----------------|----------------|-----------------|----------------------|
C#|----------------|----------------|-----------------|----------------------|
                     PM    PM     PM   PM   PM
The same with the intro but of different plucking. Just figure it out while you listen 
the song.

Pre-chorus


Gtrs I & II
D#|----------------|----------------|-----------------|----------------------|
A#|----------------|----------------|-----------------|----------------------|
F#|--------7----7--|--------8----8--|--------7-----7--|--------8-----8s10----|
C#|-0-0-0--7----7--|-0-0-0--8----8--|-0-0-0--7-----7--|-0-0-0--8--0--8s10----|
G#|-0-0-0--5----5--|-0-0-0--6----6--|-0-0-0--5-----5--|-0-0-0--6--0--6s8-----|
C#|-0-0-0----------|-0-0-0----------|-0-0-0-----------|-0-0-0-----0----------|




Chorus

Gtrs I & II
D#|-------------------|----------------|-----------------|----------------------|
A#|-------------------|----------------|-----------------|----------------------|
F#|----7--------------|----------------|-----------------|----------------------|
C#|-0--7--0--3--0-3h5-|-X3--1-1-1-1----|-----------------|----------------------|
G#|-0--5--0--3--03h5-|-----1-1-1-1----|-----------------|----------------------|
C#|-0-----0--3--03h5-|-----1-1-1-1----|-----------------|----------------------|X2


Legend

| s  | slide
| h  | hammer-on
| p  | pull-off
| ~  | vibrato
| #  | Artificial Harmonic
| fb | Full Bend
| hb | Half Bend
|fhb | One and a Half Bend
| r  | Release
===============================================================================
Tap to rate this tab
# A B C D E F G H I J K L M N O P Q R S T U V W X Y Z