Song name
# A B C D E F G H I J K L M N O P Q R S T U V W X Y Z

Stephan Weidner - Pass Gut Auf Dich Auf tab

Der W - Pass gut auf dich auf


e|--6h7p6~--9--7--6--1h2p1h2~--2--4--6h7p6~--9--7--6--1h2p1h2~--|
H|--------------------------------------------------------------|
G|--------------------------------------------------------------|
D|--------------------------------------------------------------|
A|--------------------------------------------------------------|
E|--------------------------------------------------------------|


Das wird das ganze Lied über gespielt außer bei dem Solo, welches so geht:
e|------------6h7p6-----4--6--2--1~~|
H|---4--7--9-----------4------------|
G|----------------------------------|
D|----------------------------------|
A|----------------------------------|
E|----------------------------------|


e|---------6h7p6~~----------------------6h7p6--9--6--1h2--4--6---------------------|
H|-6-7--9----------47---6--4--2~--7--9--------------------------7--7p6--4--2--2h4--|
G|---------------------------------------------------------------------------------|
D|---------------------------------------------------------------------------------|
A|---------------------------------------------------------------------------------|
E|---------------------------------------------------------------------------------|


So ein weiterer Versuch ein Lied zu tabben. Viel Spaß:-)

Hose88
Tap to rate this tab
# A B C D E F G H I J K L M N O P Q R S T U V W X Y Z