Song name
# A B C D E F G H I J K L M N O P Q R S T U V W X Y Z

Stephane Wrembel - Bistro Fada tab

This is my first tab ever and I'm not an experienced guitarrist, so this probably 
has a lot of mistakes. 
Tried my best. When I couldn't find a decent tab on internet I decided to made my 
own tab, decided to share.
Please correct me where I got it wrong! Thanks!  

x x x x x x x x x x x x x x x x x x x x x x x x x x x x x x x x x x x x x

Tuning: Standard - Low to High (E;A;D;G;B;e)
Timing: about 185bpm     Wrembel plays a little faster when playing live
The form is A A B B A C A
This tab is only for lead guitar. 


e|-----------------------------------------------------|                
B|-----------------------------------------------------|
G|--0-0---0-0---0-0--------------------0-0---0-0---0-0-|
D|--2-2---2-2---1-1--------------------2-2---2-2---1-1-|
A|--2-2---2-2---2-2-----2-3-2-0--------2-2---2-2---2-2-|
E|0-0-0-3-3-3-2-2-2-------------3-2--0-0-0-3-3-3-2-2-2-|


Section A

e|----------------------------------------------------------------6-7-8-7-6-7-10-8--------|
B|--------------------------------8\-4-7-6-5-----4-5-7-8-10p8-7-8------------------7--7-7-|
G|--------------------3-4-5-4-3-4------------4-6------------------------------------------|
D|----1-2-4-5-7p5-4-5---------------------------------------------------------------------|
A|2-4-------------------------------------------------------------------------------------|
E|----------------------------------------------------------------------------------------|

e|-----------------------------------------------------------------------7---|
B|--4-5-7-4-5-7------------------------------------------------7--10-7-8-----|
G|--------------5--5-5--2-4-5-2-4-5--------------------------8-------------9-|
D|----------------------------------4--4-4---------------7-9-----------------|
A|---------------------------------------------------6-9---------------------|
E|-----------------------------------------7h8p7\6-7-------------------------|

e|-------------------------------------------------------7-4-------- --------------------|
B|-------------------------------8\-4-7-6-5--6p5\4-5-6-5-----6-5-----------------------7-|
G|-------------------3-4-5-4-3-4---------------------------------7-5-4-4h5p4-----4----5--|
D|----1-2-4-5-7p5-4-5--------------------------------------------------------7-6 --6-7---|
A|2-4------------------------------------------------------------------------------------|
E|---------------------------------------------------------------------------------------|

e|--------------------------------------------------------------------------|
B|-8-7-5-8-7-5--------7-5-4-7-5-4----------------------------4-5--5-5-------|
G|-------------5--5-5-------------4--4-4-4h5p4-3-4-5-4-3-4-6----------------|
D|--------------------------------------------------------------------------|
A|--------------------------------------------------------------------------|
E|--------------------------------------------------------------------------|



Section A with a small variation at the beginning

e|--------------------------------------------------------------6-7h8p7-6-7-10-8---------|
B|-------------------------------8\-4-7-6-5-----4-5-7-8-----7-8------------------7--7-7--|
G|-------------------3-4-5-4-3-4------------4-6---------8-9------------------------------|
D|----1-2-4-5-7p5-4-5--------------------------------------------------------------------|
A|2-4------------------------------------------------------------------------------------|
E|---------------------------------------------------------------------------------------|

e|----------------------------------------------------------------------7---|
B|--4-5-7-4-5-7-----------------------------------------------7--10-7-8-----|
G|--------------5--5-5--2-4-5-2-4-5-------------------------8-------------9-|
D|----------------------------------4-4-4---------------7-9-----------------|
A|--------------------------------------------------6-9---------------------|
E|----------------------------------------7h8p7\6-7-------------------------|

e|-------------------------------------------------------7-4-------- --------------------|
B|-------------------------------8\-4-7-6-5--6p5\4-5-6-5-----6-5-----------------------7-|
G|-------------------3-4-5-4-3-4---------------------------------7-5-4-4h5p4-----4----5--|
D|----1-2-4-5-7p5-4-5--------------------------------------------------------7-6 --6-7---|
A|2-4------------------------------------------------------------------------------------|
E|---------------------------------------------------------------------------------------|

e|--------------------------------------------------------------------------|
B|-8-7-5-8-7-5--------7-5-4-7-5-4----------------------------4-5--5-5-------|
G|-------------5--5-5-------------4--4-4-4h5p4-3-4-5-4-3-4-6----------------|
D|--------------------------------------------------------------------------|
A|--------------------------------------------------------------------------|
E|--------------------------------------------------------------------------|



Section B: play it twice

e|-----------------------------------------------7---------|
B|---------------------------7--10-7-8h10p8-7-8---8--------|
G|-------------------------8-----------------------9-------|
D|---------------------7-9---------------------------------|
A|-6-7-8-9-6-------6-9-------------------------------------|
E|-----------8-6-7-----------------------------------------|

e|---------------------------------------------------------|
B|----------12--10-8-7-10-9-8--8---------------------------|
G|-8-9-11------------------------9-------------------------|
D|--------9------------------------------------------------|
A|---------------------------------------------------------|
E|---------------------------------------------------------|

e|-------------------------------11-14-11-12h14p12-11-12-14-15---------------------------------|
B|-------------------------10-12-------------------------------12--12h13p12-11-12-15--14-13-12-|
G|-8-9-10-11-8--------8-11---------------------------------------------------------------------|
D|-------------10-8-9--------------------------------------------------------------------------|
A|---------------------------------------------------------------------------------------------|
E|---------------------------------------------------------------------------------------------|

e|------------------------------------------|
B|------------------------------------------|
G|14-12-11h12p11----------------------------|
D|---------------14-13-13/14--14-14 --------|
A|------------------------------------------|
E|------------------------------------------|



Section A with one extra note at the end

e|----------------------------------------------------------------6-7-8-7-6-7-10-8--------|
B|--------------------------------8\-4-7-6-5-----4-5-7-8-10p8-7-8------------------7--7-7-|
G|--------------------3-4-5-4-3-4------------4-6------------------------------------------|
D|----1-2-4-5-7p5-4-5---------------------------------------------------------------------|
A|2-4-------------------------------------------------------------------------------------|
E|----------------------------------------------------------------------------------------|

e|-----------------------------------------------------------------------7---|
B|--4-5-7-4-5-7------------------------------------------------7--10-7-8-----|
G|--------------5--5-5--2-4-5-2-4-5--------------------------8-------------9-|
D|----------------------------------4--4-4---------------7-9-----------------|
A|---------------------------------------------------6-9---------------------|
E|-----------------------------------------7h8p7\6-7-------------------------|

e|-------------------------------------------------------7-4-------- --------------------|
B|-------------------------------8\-4-7-6-5--6p5\4-5-6-5-----6-5-----------------------7-|
G|-------------------3-4-5-4-3-4---------------------------------7-5-4-4h5p4-----4----5--|
D|----1-2-4-5-7p5-4-5--------------------------------------------------------7-6 --6-7---|
A|2-4------------------------------------------------------------------------------------|
E|---------------------------------------------------------------------------------------|

e|--------------------------------------------------------------------------|
B|-8-7-5-8-7-5--------7-5-4-7-5-4----------------------------4-5--5-5-5-----|
G|-------------5--5-5-------------4--4-4-4h5p4-3-4-5-4-3-4-6----------------|
D|--------------------------------------------------------------------------|
A|--------------------------------------------------------------------------|
E|--------------------------------------------------------------------------|



Section C

e|-------------------------------------------------------------------4-7-/10-8-7-8--/12-8-----------|
B|-------3-5-7-3-5-7-3-5-7-3-5-7--4-5-7-4-5-7-4-5-7-4-5-7--5h6p5-4-5----------------------10--10-10-|
G|--4-5---------------------------------------------------------------------------------------------|
D|--------------------------------------------------------------------------------------------------|
A|--------------------------------------------------------------------------------------------------|
E|--------------------------------------------------------------------------------------------------|

e|------------------10-10-8-8-7-7--------------------6-5-6----------|
B|-7-8-10-7-8-10------------------10-10-8-8-------7--------------7--|
G|---------------7-------------------------------6--------------8---|
D|--------------------------------------------7/8------------7/9----|
A|------------------------------------------------------------------|
E|------------------------------------------------------------------|

e|-------------------------------------------------------------------4-7-/10-8-7-8--/12-8----------|
B|-3/5-4-3-5-7-3-5-7-3-5-7-3-5-7--4-5-7-4-5-7-4-5-7-4-5-7--5h6p5-4-5----------------------10--10-10|
G|-------------------------------------------------------------------------------------------------|
D|-------------------------------------------------------------------------------------------------|
A|-------------------------------------------------------------------------------------------------|
E|-------------------------------------------------------------------------------------------------|

e|----8--10-11-12--12-15-15-14-17-14--------14---12h14p12-11-12--15-12---------------------|
B|--10--------------------------------15-15----------------------------13---12-13-15-------|
G|-9----------------------------------------------------------------------12------------12-|
D|-----------------------------------------------------------------------------------12----|
A|-----------------------------------------------------------------------------------------|
E|-----------------------------------------------------------------------------------------|



Section A again, except for the ending of the song. 

e|----------------------------------------------------------------6-7-8-7-6-7-10-8--------|
B|--------------------------------8\-4-7-6-5-----4-5-7-8-10p8-7-8------------------7--7-7-|
G|--------------------3-4-5-4-3-4------------4-6------------------------------------------|
D|----1-2-4-5-7p5-4-5---------------------------------------------------------------------|
A|2-4-------------------------------------------------------------------------------------|
E|----------------------------------------------------------------------------------------|

e|-----------------------------------------------------------------------7---|
B|--4-5-7-4-5-7------------------------------------------------7--10-7-8-----|
G|--------------5--5-5--2-4-5-2-4-5--------------------------8-------------9-|
D|----------------------------------4--4-4---------------7-9-----------------|
A|---------------------------------------------------6-9---------------------|
E|-----------------------------------------7h8p7\6-7-------------------------|

e|-------------------------------------------------------7-4-------- --------------------|
B|-------------------------------8\-4-7-6-5--6p5\4-5-6-5-----6-5-----------------------7-|
G|-------------------3-4-5-4-3-4---------------------------------7-5-4-4h5p4-----4----5--|
D|----1-2-4-5-7p5-4-5--------------------------------------------------------7-6 --6-7---|
A|2-4------------------------------------------------------------------------------------|
E|---------------------------------------------------------------------------------------|

e|------------------------------------------------------------------------------|
B|-8-7-5-8-7-5--------7-5-4-7-5-4----------------------------4--5---------0-----|
G|-------------5--5-5-------------4--4-4-4h5p4-3-4-5-4-3-4-6-------4------0-----|
D|--------------------------------------------------------------------5---2-----|
A|------------------------------------------------------------------------2-----|
E|------------------------------------------------------------------------0-----|





************************************

| /   slide up
| \   slide down
| h   hammer-on
| p   pull-off


Tap to rate this tab
# A B C D E F G H I J K L M N O P Q R S T U V W X Y Z