Song name
# A B C D E F G H I J K L M N O P Q R S T U V W X Y Z

Stephanie Lapointe - Eau Sale chords

Highlighted       Show chord diagrams
-------------------------------------------------------------------------------
			  Eau Salée - Stéphanie Lapointe
-------------------------------------------------------------------------------
composed by:	Pierre Lapointe, Philippe B

Tabbed by: 	neuroxik 

Tuning:		1/2 step down (Eb Ab Db Gb Bb Eb)

Chords relative to tuning / Les accords sont relatifs au "tuning"

Notice:		Because the song is in french and will probably aim a french
	public, I've put the notes in french so they can understand.

-------------------------------------------------------------------------------

note: dans les couplets/verses, les accords sont staccato (pour la plupart)


Riff A: (voir à la fin pour les "riffs")
             Bm             E    F#
J'ai dans le sang une eau salée

          Bm                                               E    F#
Qui comme la marée remonte et descend pour toujours te ramener

             Bm              F#
J'ai dans la bouche un goût amer

            Bm                  E
Comme si j'avais avalé toute la mer

Bm           F#             Bm
  Pour noyer nos amours d'hier


CHORUS:
          D                A 
Et sur la plage, j'ai dessiné

           Bm              E
Ton doux visage pour l'effacer

          D               A
Et sur le sable, j'ai déposé

                  Bm             E  
Les mille et une images de notre été


CHORUS 2:

Bm    D  E - F#   
(La la la....)

Bm    D  E - F#   

Bm   F#  Bm  E - F#

Bm   F#  Bm  (..Bm)


          D                A
Et sur la plage je reviendrai

          Bm              E
Loin des orages de mon passé

          D               A
Et sur le sable je m'étendrai

                Bm                E
Sur une blanche page pour me reposer


>>(répéter "CHORUS 2" jusqu'à la fin)


-------------------------------------------------------------------------------
"Riffs" utilisés
===============================================================================

Riff A (ressemble à ceci: )

  Bm            E            F#                Bm       F#       Bm
------------------------------------|-------|----------------------------------|
--3-3-3-3-3-3-----------------------|-------|--3-3-3-3--2-2-2-2--3-3-3-3-------|
--4-4-4-4-4-4---9-9-9-9-9-9--11--11-|--   --|--4-4-4-4--3-3-3-3--4-4-4-4-------|
--x-x-x-x-x-x---x-x-x-x-x-x--x---x--|- X 2 -|--X-X-X-X----4-4-4--x-x-x-x-------|
--2-2-2-2-2-2---7-7-7-7-7-7--9---9--|--   --|--2-2-2-2----4-4-4--2-2-2-2-------|
----------------0-0-0-0-0-0---------|-------|-----------2----------------------|

  E           Bm       F#       Bm
-----------|-------------------------------------||----------------------------|
-----------|--3-3-3-3--2-2-2-2--3-3-3-3-3-3-3-3--||----------------------------|
--9-9-9-9--|--4-4-4-4--3-3-3-3--x-x-x-x-x-x-x-x--||----------------------------|
--x-x-x-x--|--x-x-x-x----4-4-4--4-4-4-4-4-4-4-4--||-- end Riff A --------------|
--7-7-7-7--|--2-2-2-2----4-4-4--2-2-2-2-2-2-2-2--||----------------------------|
--0--------|-----------2-------------------------||----------------------------|
Tap to rate this tab
 
# A B C D E F G H I J K L M N O P Q R S T U V W X Y Z