Song name
# A B C D E F G H I J K L M N O P Q R S T U V W X Y Z

Stephanie Mcintosh - So Do I Say Sorry First tab

-------------------------------------------------------------------------------
		So Do I Say Sorry First - Stephanie McIntosh
-------------------------------------------------------------------------------
Tabbed by: Mike Frangleton

Tuning: Standard

| x  Mute note
\ =  Slide up

Intro
e|---------------------------------------------------------------------|
B|---------------------------------------------------------------------|
G|--77777777555555554444444433333333---x 2-----------------------------| 
D|---------------------------------------------------------------------|
A|---------------------------------------------------------------------|
E|---------------------------------------------------------------------|

verse
e|------------------------------------------------------|
B|------------------------------------------------------|
G|------------------------------------------------------|
D|--7-10-12\--------------------------------------------|
A|--7-10-12\----x 9-------------------------------------|
E|--5-8--10\--------------------------------------------|

1st chorus
e|---------------------------------------------------------------------|
B|---------------------------------------------------------------------|
G|---------------------------------------------------------------------|
D|-7-10-1212121212121212-88888888-66666666-1010101010101010------------|
A|-7-10-1212121212121212-88888888-66666666-1010101010101010------------|
E|-5-8--1010101010101010-66666666-44444444--8-8-8-8-8-8-8-8------------|

e|---------------------------------------------------------------------|
B|---------------------------------------------------------------------|
G|---------------------------------------------------------------------|
D|-1212121212121212-88888888-1010101010101010--------------------------|
A|-1212121212121212-88888888-1010101010101010--------------------------|
E|-1010101010101010-66666666-8-8-8-8-8-8-8-8---------------------------|

e|---------------------------------------------------------------------|
B|---------------------------------------------------------------------|
G|---------------------------------------------------------------------|
D|-1212121212121212-88888888-66666666-1010101010101010-----------------|
A|-1212121212121212-88888888-66666666-1010101010101010-----------------|
E|-1010101010101010-66666666-44444444--8-8-8-8-8-8-8-8-----------------|

e|---------------------------------------------------------------------|
B|---------------------------------------------------------------------|
G|---------------------------------------------------------------------|
D|-55555555-1010101010101010-------------------------------------------|
A|-55555555-1010101010101010-------------------------------------------|
E|-33333333--8-8-8-8-8-8-8-8-------------------------------------------|


verse
e|------------------------------------------------------|
B|------------------------------------------------------|
G|------------------------------------------------------|
D|--7-10-12\--------------------------------------------|
A|--7-10-12\--------------------------------------------|
E|--5-8--10\--------------------------------------------|




2nd chorus
e|---------------------------------------------------------------------|
B|---------------------------------------------------------------------|
G|---------------------------------------------------------------------|
D|-1212121212121212-88888888-66666666-1010101010101010-----------------|
A|-1212121212121212-88888888-66666666-1010101010101010-----------------|
E|-1010101010101010-66666666-44444444--8-8-8-8-8-8-8-8-----------------|

e|---------------------------------------------------------------------|
B|---------------------------------------------------------------------|
G|---------------------------------------------------------------------|
D|-1212121212121212-88888888-1010101010101010--------------------------|
A|-1212121212121212-88888888-1010101010101010--------------------------|
E|-1010101010101010-66666666-8-8-8-8-8-8-8-8---------------------------|

e|---------------------------------------------------------------------|
B|---------------------------------------------------------------------|
G|---------------------------------------------------------------------|
D|-1212121212121212-88888888-66666666-1010101010101010-----------------|
A|-1212121212121212-88888888-66666666-1010101010101010-----------------|
E|-1010101010101010-66666666-44444444--8-8-8-8-8-8-8-8-----------------|

e|---------------------------------------------------------------------|
B|---------------------------------------------------------------------|
G|---------------------------------------------------------------------|
D|-55555555-1010101010101010-------------------------------------------|
A|-55555555-1010101010101010-------------------------------------------|
E|-33333333--8-8-8-8-8-8-8-8-------------------------------------------|

"sometimes i feel..."
e|---------------------------------------------------------------------|
B|---------------------------------------------------------------------|
G|---------------------------------------------------------------------|
D|-1212121212121212-88888888-1010101010101010-1212121212121212---------|
A|-1212121212121212-88888888-1010101010101010-1212121212121212---------|
E|-1010101010101010-66666666-8-8-8-8-8-8-8-8--1010101010101010---------|

e|---------------------------------------------------------------------|
B|---------------------------------------------------------------------|
G|---------------------------------------------------------------------|
D|-1212121212121212-88888888-1010101010101010-55555555-----------------|
A|-1212121212121212-88888888-1010101010101010-55555555-----------------|
E|-1010101010101010-66666666-8-8-8-8-8-8-8-8--33333333-----------------|

then post chorus
e|---------------------------------------------------------------------|
B|---------------------------------------------------------------------|
G|--77777777555555554444444433333333-----------------------------------| 
D|---------------------------------------------------------------------|
A|---------------------------------------------------------------------|
E|---------------------------------------------------------------------|

e|---------------------------------------------------------------------|
B|---------------------------------------------------------------------|
G|--77777777555555554444444433333333-33-5------------------------------| 
D|---------------------------------------------------------------------|
A|---------------------------------------------------------------------|
E|---------------------------------------------------------------------|

quiet unplugged sounding part (just play with lots of treble and little
bass) its played differently to the chorus so listen for timings
e|---------------------------------------------------------------------|
B|---------------------------------------------------------------------|
G|---------------------------------------------------------------------|
D|-1212121212121212-88888888-66666666-1010101010101010-----------------|
A|-1212121212121212-88888888-66666666-1010101010101010-----------------|
E|-1010101010101010-66666666-44444444--8-8-8-8-8-8-8-8-----------------|

e|---------------------------------------------------------------------|
B|---------------------------------------------------------------------|
G|---------------------------------------------------------------------|
D|-1212121212121212-88888888-10101010-10-10-10-10----------------------|
A|-1212121212121212-88888888-10101010-10-10-10-10----------------------|
E|-1010101010101010-66666666--8-8-8-8--8--8--8--8----------------------|

then chorus x2
e|---------------------------------------------------------------------|
B|---------------------------------------------------------------------|
G|---------------------------------------------------------------------|
D|-1212121212121212-88888888-66666666-1010101010101010-----------------|
A|-1212121212121212-88888888-66666666-1010101010101010-----------------|
E|-1010101010101010-66666666-44444444--8-8-8-8-8-8-8-8-----------------|

e|---------------------------------------------------------------------|
B|---------------------------------------------------------------------|
G|---------------------------------------------------------------------|
D|-1212121212121212-88888888-1010101010101010--------------------------|
A|-1212121212121212-88888888-1010101010101010--------------------------|
E|-1010101010101010-66666666-8-8-8-8-8-8-8-8---------------------------|

e|---------------------------------------------------------------------|
B|---------------------------------------------------------------------|
G|---------------------------------------------------------------------|
D|-1212121212121212-88888888-66666666-1010101010101010-----------------|
A|-1212121212121212-88888888-66666666-1010101010101010-----------------|
E|-1010101010101010-66666666-44444444--8-8-8-8-8-8-8-8-----------------|

e|---------------------------------------------------------------------|
B|---------------------------------------------------------------------|
G|---------------------------------------------------------------------|
D|-55555555-1010101010101010-------------------------------------------|
A|-55555555-1010101010101010-------------------------------------------|
E|-33333333--8-8-8-8-8-8-8-8-------------------------------------------|

then end on verse
e|------------------------------------------------------|
B|------------------------------------------------------|
G|------------------------------------------------------|
D|--5-8--10\--------------------------------------------|
A|--5-8--10\--x3----------------------------------------|
E|--5-8--10\--------------------------------------------|



That's it!

Sounds pretty much spot on to me
Tap to rate this tab
 
# A B C D E F G H I J K L M N O P Q R S T U V W X Y Z