Song name
# A B C D E F G H I J K L M N O P Q R S T U V W X Y Z

Stephen Cooper - Misanthrope tab

Artist: Stephen Cooper
Song: Misanthrope
Album: Self-Degradation Of The Human Being 

www.stephen-cooper.net

Standard tuning

Chorus (x2)
e|----------------------------------------------------------------------------------|
B|----------------------------------------------------------------------------------|
G|----------------------------------------------------------------------------------|
D|9-9-9-9-9-9-9-9-9-9-9-9-9-9-9-0-10-10-10-10-10-10-10-10-10-10-10-10-10-10-10-0----|
A|7-7-7-7-7-7-7-7-7-7-7-7-7-7-7-0-8--8--8--8--8--8--8--8--8--8--8--8--8--8--8--0----|
E|----------------------------------------------------------------------------------|

Chorus (x4)

Bridge (x4)
e|----------------------------------------------------|
B|----------------------------------------------------|
G|----------------------------------------------------|
D|----------------------------------------------------|
A|2-2-2-2-2-2-2-2-2-2-2-0-3-3-3-3-3-3-3-3-3-3-3-0-----|
E|0-0-0-0-0-0-0-0-0-0-0-0-1-1-1-1-1-1-1-1-1-1-1-0-----|

Chorus (x4)

Ending
e|------|
B|------|
G|------|
D|------|
A|2-----|
E|0-----|

Tap to rate this tab
 
# A B C D E F G H I J K L M N O P Q R S T U V W X Y Z