Guitaretab - guitar tabs
Song name
# A B C D E F G H I J K L M N O P Q R S T U V W X Y Z

Stephen Cooper - Beautiful Disease tab

Artist: Stephen Cooper
Song: Beautiful Disease 
Album: Self-Degradation Of The Human Being

Standard tuning

Chorus (x3)
e|-------------------------------------------------|
B|-------------------------------------------------|
G|-------------------------------------------------|
D|5--/--7\-----------------------------------------|
A|3--/--5\--2-2-2-2--2-2-2-2--2-2-2-2--2-2-2-2-----|
E|----------0-0-0-0--0-0-0-0--0-0-0-0--0-0-0-0-----|
            * * * *  * * * *  * * * *  * * * *  

(x1)
e|-------------|
B|-------------|
G|-------------|
D|5--/--7\-----|
A|3--/--5\-----|
E|-------------|

(Break)

Chorus (x3)
e|-------------------------------------------------|
B|-------------------------------------------------|
G|-------------------------------------------------|
D|5--/--7\-----------------------------------------|
A|3--/--5\--2-2-2-2--2-2-2-2--2-2-2-2--2-2-2-2-----|
E|----------0-0-0-0--0-0-0-0--0-0-0-0--0-0-0-0-----|
            * * * *  * * * *  * * * *  * * * *  

(x1)
e|-------------|
B|-------------|
G|-------------|
D|5--/--7\-----|
A|3--/--5\-----|
E|-------------|

(Break)

[ Tab from: http://www.guitaretab.com/s/stephen-cooper/86445.html ]
Chorus (x3)
e|-------------------------------------------------|
B|-------------------------------------------------|
G|-------------------------------------------------|
D|5--/--7\-----------------------------------------|
A|3--/--5\--2-2-2-2--2-2-2-2--2-2-2-2--2-2-2-2-----|
E|----------0-0-0-0--0-0-0-0--0-0-0-0--0-0-0-0-----|
            * * * *  * * * *  * * * *  * * * *  

(x1)
e|-------------|
B|-------------|
G|-------------|
D|5--/--7\-----|
A|3--/--5\-----|
E|-------------|

Outro (Repeat until the end)
e|------------------------------------------------------------------|
B|------------------------------------------------------------------|
G|------------------------------------------------------------------|
D|------------------------------------------------------------------|
A|-----------------------------------------------------------8------|
E|0-0-0-0-3p0--0-0-0-0-0-0-5p0--0-0-0-0-0-0-3p0--0-0-0-0-0-0-6------|
  * * * *      * * * * * *      * * * * * *      * * * * * *  
e|------------------------------------------------------------------|
B|------------------------------------------------------------------|
G|------------------------------------------------------------------|
D|------------------------------------------------------------------|
A|-----------------------------------------------------------3------|
E|0-0-0-0-3p0--0-0-0-0-0-0-5p0--0-0-0-0-0-0-3p0--0-0-0-0-0-0-1------|
  * * * *      * * * * * *      * * * * * *      * * * * * *  


*   =  palm mute
/   =  slide up
\   =  slide down
p   =  pull-off
Related for Beautiful Disease tab
Advertisement will be closed in 10 seconds