Song name
# A B C D E F G H I J K L M N O P Q R S T U V W X Y Z

Stephen Cooper - Hives Factory tab

Artist: Stephen Cooper
Song: Hives Factory
Album: Self-Degradation Of The Human Being 

Drop D tuning

Intro/Chorus (x1)
e|----------------------------------------------------|
B|----------------------------------------------------|
G|----------------------------------------------------|
D|----5/7-7-------5/7-7-7-----5/7---------------------|
A|0-0-3/5-5-0-0-0-3/5-5-5-0-0-3/5-0-3-3-3-5-5-5-5-----|
D|0-0-------0-0-0---------0-0-----0-3-3-3-5-5-5-5-----|

e|----------------------------------------------------|
B|----------------------------------------------------|
G|----------------------------------------------------|
D|----5/7-7-------5/7-7-7-----5/7---------------------|
A|0-0-3/5-5-0-0-0-3/5-5-5-0-0-3/5-0-3-3-3-5-5-5-3-----|
D|0-0-------0-0-0---------0-0-----0-3-3-3-5-5-5-3-----|

Verse (x3)
e|------------------------------------------------------------------|
B|------------------------------------------------------------------|
G|------------------------------------------------------------------|
D|------------------------------------------------5-5-5/7-7-7-------|
A|0-0-0-0-0-0-0-0-0-0-0-0-0-0-0-0-0-0-0-0-0-0-0-0-3-3-3/5-5-5-0-----|
D|0-0-0-0-0-0-0-0-0-0-0-0-0-0-0-0-0-0-0-0-0-0-0-0-------------0-----|
  * * * * * * * * * * * * * * * * * * * * * * * * 

(x1)
e|------------------------------------------------------------------|
B|------------------------------------------------------------------|
G|------------------------------------------------------------------|
D|------------------------------------------------5-5-5/7-7-7-7-----|
A|0-0-0-0-0-0-0-0-0-0-0-0-0-0-0-0-0-0-0-0-0-0-0-0-3-3-3/5-5-5-5-----|
D|0-0-0-0-0-0-0-0-0-0-0-0-0-0-0-0-0-0-0-0-0-0-0-0-------------------|
  * * * * * * * * * * * * * * * * * * * * * * * * 

Chorus (x1)

Verse (x3)
e|------------------------------------------------------------------|
B|------------------------------------------------------------------|
G|------------------------------------------------------------------|
D|------------------------------------------------5-5-5/7-7-7-------|
A|0-0-0-0-0-0-0-0-0-0-0-0-0-0-0-0-0-0-0-0-0-0-0-0-3-3-3/5-5-5-0-----|
D|0-0-0-0-0-0-0-0-0-0-0-0-0-0-0-0-0-0-0-0-0-0-0-0-------------0-----|
  * * * * * * * * * * * * * * * * * * * * * * * * 

(x1)
e|------------------------------------------------------------------|
B|------------------------------------------------------------------|
G|------------------------------------------------------------------|
D|------------------------------------------------5-5-5/7-7-7-7-----|
A|0-0-0-0-0-0-0-0-0-0-0-0-0-0-0-0-0-0-0-0-0-0-0-0-3-3-3/5-5-5-5-----|
D|0-0-0-0-0-0-0-0-0-0-0-0-0-0-0-0-0-0-0-0-0-0-0-0-------------------|
  * * * * * * * * * * * * * * * * * * * * * * * * 

Chorus (x2)

Bridge (x3)
e|--------------------------------------------------|
B|--------------------------------------------------|
G|--------------------------------------------------|
D|--------------------------------------------------|
A|5-5-5-5-5-5-5-5-5-5-5-5-5-5-5-5-0-3-3-3/8-8-0-----|
D|5-5-5-5-5-5-5-5-5-5-5-5-5-5-5-5-0-3-3-3/8-8-0-----|

(x1)
e|----------------------------------------------------|
B|----------------------------------------------------|
G|----------------------------------------------------|
D|----------------------------------------------------|
A|5-5-5-5-5-5-5-5-5-5-5-5-5-5-5-5-0-3-3-3/8-8-8-8-----|
D|5-5-5-5-5-5-5-5-5-5-5-5-5-5-5-5-0-3-3-3/8-8-8-8-----|

Chorus (x2)
           
Ending            
e|------|
B|------|
G|------|
D|------|
A|0-----|
D|0-----|



*   =  palm mute
/   =  slide up
\   =  slide down
Tap to rate this tab
# A B C D E F G H I J K L M N O P Q R S T U V W X Y Z