Song name
# A B C D E F G H I J K L M N O P Q R S T U V W X Y Z

Stephen Cooper - Eccehomo tab

Artist: Stephen Cooper
Song: Eccehomo
Album: Self-Degradation Of The Human Being

Drop D tuning

Intro/Verse (x12)
e|----------------------------|
B|----------------------------|
G|----------------------------|
D|----------------------------|
A|1-0--0-0-0--0--0--0-0-0-----|
D|1-0--0-0-0--0--0--0-0-0-----|
       * * *  *  *  * * *

Chorus (x2)
e|----------------------------------------------------|
B|----------------------------------------------------|
G|-------------------7--------------------------------|
D|---------7---6---6---6\-----------7---6---6\--5-----|
A|1-0----5---5---5---------1-0----5---5---5---3-------|
D|1-0--0-------------------1-0--0---------------------|

Verse (x6)

Chorus (x2)

(x1)
e|------|
B|------|
G|------|
D|------|
A|1-----|
D|1-----|

Bridge (x4)
e|------------------------------|
B|------------------------------|
G|------------------------------|
D|------------------------------|
A|0-----1-----0-----5--\--1-----|
D|0-----1-----0-----5--\--1-----|

Chorus (x4)

Ending
e|--------|
B|--------|
G|--------|
D|--------|
A|1-0-----|
D|1-0-----|


*   =  palm mute
/   =  slide up
\   =  slide down
Tap to rate this tab
# A B C D E F G H I J K L M N O P Q R S T U V W X Y Z