Song name
# A B C D E F G H I J K L M N O P Q R S T U V W X Y Z

Stephen Cooper - Slave To His Own Creation tab

Artist: Stephen Cooper
Song: Slave To His Own Creation
Album: Self-Degradation Of The Human Being

Drop D tuning

Intro (x8)
e|------------------------------------|
B|------------------------------------|
G|------------------------------------|
D|------------------------------------|
A|5-----3-----6---5-----3---3---3-----|
D|--0-0---0-0---0---0-0---0---0-------|

Verse (x3)
e|--------------------------------|
B|--------------------------------|
G|--------------------------------|
D|--------------------------------|
A|0---------------------3-5-3-----|
D|0-3-3-3-3-3-3-3-3-3-3-3-5-3-----|
    h.h.h.h.h.h.h.h.h.h.

(x1)
e|--------------------------------------|
B|--------------------------------------|
G|--------------------------------------|
D|--------------------------------------|
A|0---------------------3-3-3-3-5-5-----|
D|0-3-3-3-3-3-3-3-3-3-3-3-3-3-3-5-5-----|
    h.h.h.h.h.h.h.h.h.h.

(x3)
e|--------------------------------|
B|--------------------------------|
G|--------------------------------|
D|--------------------------------|
A|0---------------------3-5-3-----|
D|0-3-3-3-3-3-3-3-3-3-3-3-5-3-----|
    h.h.h.h.h.h.h.h.h.h.

(x1)
e|--------------------------------------|
B|--------------------------------------|
G|--------------------------------------|
D|--------------------------------------|
A|0---------------------3-3-3-3-5-5-----|
D|0-3-3-3-3-3-3-3-3-3-3-3-3-3-3-5-5-----|
    h.h.h.h.h.h.h.h.h.h.


Chorus (x2)
e|--------------------------------|
B|--------------------------------|
G|--------------------------------|
D|--------------------------------|
A|0-----6--\--3-----5-----1-1-----|
D|0-----6--\--3-----5-----1-1-----|

(x4)
e|------------------------------------|
B|------------------------------------|
G|------------------------------------|
D|------------------------------------|
A|5-----3-----6---5-----3---3---3-----|
D|--0-0---0-0---0---0-0---0---0-------|

(Repeat Verse)

Chorus (x4)

Interlude (x1)
e|--------------------------------|
B|--------------------------------|
G|--------------------------------|
D|--------------------------------|
A|0-----0-----0-0-0-0-0-0-0-0-----|
D|0-----0-----0-0-0-0-0-0-0-0-----|
              * * * * *

(x4)
e|------------------------------------|
B|------------------------------------|
G|------------------------------------|
D|------------------------------------|
A|5-----3-----6---5-----3---3---3-----|
D|--0-0---0-0---0---0-0---0---0-------|

Chorus (x4)

(x4)
e|------------------------------------|
B|------------------------------------|
G|------------------------------------|
D|------------------------------------|
A|5-----3-----6---5-----3---3---3-----|
D|--0-0---0-0---0---0-0---0---0-------|

Ending
e|------|
B|------|
G|------|
D|------|
A|5-----|
D|------|


*   =  palm mute
/   =  slide up
\   =  slide down
h.  =  natural harmonics
Tap to rate this tab
# A B C D E F G H I J K L M N O P Q R S T U V W X Y Z