Song name
# A B C D E F G H I J K L M N O P Q R S T U V W X Y Z

Stephen Cooper - Crucified By The Christian Docility tab

Artist: Stephen Cooper
Song: Crucified By The Christian Docility
Album: Self-Degradation Of The Human Being 

Tuning: Eb

Intro/Verse (x4)
|---------------------------------------------------|
|---------------------------------------------------|
|---------------------------------------------------|
|---------------------------------------------------|
|----8-7-----5-----10^-----8-7-----3-----5^---------|
|0-0-----0-0---0-0-----0-0-----0-0---0-0----0-0-----|

|-----------------------------------------------|
|-----------------------------------------------|
|-----------------------------------------------|
|-----------------------------------------------|
|----8-7-----5-----12^-----8-7-----3-----5^-----|
|0-0-----0-0---0-0-----0-0-----0-0---0-0--------|

Chorus (x1)
|---------------------------------------------------|
|---------------------------------------------------|
|---------------------------------------------------|
|---------------------------------------------------|
|2-----4-----5--/--10-\--2-----4--/--10-\--5--7-----|
|0-----2-----3--/--8--\--0-----2--/--8--\--3--5-----|

Verse (x3)

Chorus (x2)

Bridge (x4)
|----------------------------------------------------------------|
|----------------------------------------------------------------|
|----------------------------------------------------------------|
|----------------------------------------------------------------|
|--5-7---5-7---5-7---5-7---5-7-----5-7---5-7---5-7---5-7-5-7-----|
|0-----0-----0-----0-----0-----6-0-----0-----0-----0-----3-5-----|

Chorus (x2)

Bridge (x4)

Ending
|------|
|------|
|------|
|------|
|2-----|
|0-----|


| ^  band
| /  slide up
| \  slide down
Tap to rate this tab
# A B C D E F G H I J K L M N O P Q R S T U V W X Y Z