Song name
# A B C D E F G H I J K L M N O P Q R S T U V W X Y Z

Stephen Cooper - Behind Her Smile tab

Artist: Stephen Cooper
Song: Behind Her Smile
Album: Self-Degradation Of The Human Being

Standard tuning

Intro/Verse (Clean Gtr.) (x6)
e|---------------------------------------0-----|
B|------2p3-------2p3---------0-------0--0-----|
G|----4---------4-----------0-------0----2-----|
D|--4---------4-----------0-------0------2-----|
A|2---------2----------------------------0-----|
E|--------------------0-3-------3--------------|

(x1)
e|------------------------------------------|
B|------2p3-------2p3---------0-------0-----|
G|----4---------4-----------0-------0-------|
D|--4---------4-----------0-------0---------|
A|2---------2-------------------------------|
E|--------------------0-3-------3-----------|

W/Dist. (x1)
e|----------|
B|----------|
G|----------|
D|----------|
A|7-7-7-----|
E|5-5-5-----|

Chorus (Distorted Gtr.) (x2)
e|-------------------------------------------------------|
B|-------------------------------------------------------|
G|-------------------------------------------------------|
D|-------------------------------------------------------|
A|9-9-9-9-9-9-9-9-9-11-11-11\5-5-5-5-5-5-5-5-5-7-7-7-----|
E|7-7-7-7-7-7-7-7-7-9--9--9-\3-3-3-3-3-3-3-3-3-5-5-5-----|

Verse (Clean Gtr.) (x1)
e|---------------------------------------0-----|
B|------2p3-------2p3---------0-------0--0-----|
G|----4---------4-----------0-------0----2-----|
D|--4---------4-----------0-------0------2-----|
A|2---------2----------------------------0-----|
E|--------------------0-3-------3--------------|

(x1)
e|------------------------------------------|
B|------2p3-------2p3---------0-------0-----|
G|----4---------4-----------0-------0-------|
D|--4---------4-----------0-------0---------|
A|2---------2-------------------------------|
E|--------------------0-3-------3-----------|

W/Dist. (x1)
e|----------|
B|----------|
G|----------|
D|----------|
A|7-7-7-----|
E|5-5-5-----|

Chorus (x2)

Verse (Clean Gtr.) (x2)
e|---------------------------------------0-----|
B|------2p3-------2p3---------0-------0--0-----|
G|----4---------4-----------0-------0----2-----|
D|--4---------4-----------0-------0------2-----|
A|2---------2----------------------------0-----|
E|--------------------0-3-------3--------------|

(x1)
e|------------------------------------------|
B|------2p3-------2p3---------0-------0-----|
G|----4---------4-----------0-------0-------|
D|--4---------4-----------0-------0---------|
A|2---------2-------------------------------|
E|--------------------0-3-------3-------0---|

W/Dist. (x1)
e|------------------------------------|
B|------------------------------------|
G|------------------------------------|
D|------------------------------------|
A|5-5-5-5-5-5-5-5-5-5-5-5-5-7-7-7-----|
E|3-3-3-3-3-3-3-3-3-3-3-3-3-5-5-5-----|
  * * * * * * * *  

Chorus (x4)

Ending
e|------|
B|------|
G|------|
D|------|
A|9-----|
E|7-----|


*   =  palm mute
/   =  slide up
\   =  slide down
p   =  pull-off
Tap to rate this tab
 
# A B C D E F G H I J K L M N O P Q R S T U V W X Y Z