Song name
# A B C D E F G H I J K L M N O P Q R S T U V W X Y Z

Stephen Cooper - Cradle Of Pain tab

Artist: Stephen Cooper
Song: Cradle Of Pain
Album: Self-Degradation Of The Human Being 

Standard tuning

Intro/Verse (Clean Gtr.) (x12)
e|----------------------------|
B|----------------------------|
G|----------------------------|
D|----4-----5-----4-----2-----|
A|--2-----3-----2-----3-------|
E|0-----0-----0-----0---------|

Chorus (Distorted Gtr.) (x4)
e|------------------------------------|
B|------------------------------------|
G|------------------------------------|
D|--------5-5-5-5---------4-4-4-------|
A|2-2-2-2-3-3-3-3-5-5-5-5-2-2-2-------|
E|0-0-0-0---------3-3-3-3-------3-----|

Verse (x8)

Chorus (x4)

Verse (x2)

Solo
e|---------------------------------------------------------------------------|
B|---------------------------------------------------------------------10----|
G|-------------------------------------------------7-9-7-9/11-12-11-9--------|
D|---------------------------------------------7-9---------------------------|
A|5/7-7-7/9-9-9/10-10-10\5-5/7--------------7--------------------------------|
E|-----------------------------5^-3/5/8-7h8----------------------------------|

e|---------------------------------------------------------------------------|
B|8p7h8-------------8---8---8---10---10---10---7---7---7---8---8---8---------|
G|------7---------9---9---9---9----9----9----9---9---9---9---9---9-----------|
D|--------9-9^\--------------------------------------------------------------|
A|---------------------------------------------------------------------------|
E|---------------------------------------------------------------------------|

e|---------------------------7------7-----------10------10-----------12~-----|
B|--8---8---8---10---10---10---10-----10---10------10------10---10-----------|
G|9---9---9---9----9----9---------9------9----9-------9-------9----9---------|
D|---------------------------------------------------------------------------|
A|---------------------------------------------------------------------------|
E|---------------------------------------------------------------------------|

Chorus (x8)

Ending
e|-------------------------------------------------------------|
B|-------------------------------------------------------------|
G|-------------------------------------------------------------|
D|----4-----5-----4-----2-----4-----5-----4-----2--------------|
A|--2-----3-----2-----3-----2-----3-----2-----3---3/5\3--2-----|
E|0-----0-----0-----0-----0-----0-----0-----0------------0-----|


| ^  bend
| ~  vibrato
| /  slide up
| \  slide down
| h  hammer-on
| p  pull-off
Tap to rate this tab
# A B C D E F G H I J K L M N O P Q R S T U V W X Y Z