Song name
# A B C D E F G H I J K L M N O P Q R S T U V W X Y Z

Stephen Fretwell - Do You Want To Come With tab

Artist: Stephen Fretwell
Song: Do You Want To Come With?
Album: Magpie
Contact me: yonni_man@hotmail.com

This took ages!  Listen to the song to know when to sing.

Intro:

e|--------------------------|
B|-------1-------1----------|
G|--------------------------|
D|--------------------------|
A|--------------------------|
E|--------------------------|

e|-------------------------------------------------|
B|--1-----------1-----------1-----------1----------|
G|--------0-----------0-----------0-----------0----|    x 2
D|-----2-----2-----2-----2-----2-----2-----2-----2-|
A|--3----------------------------------------------|
E|-------------------------------------------------|

Verse:

Green-eyed monster
e|-------------------------------------------------|
B|--------------1-----------1-----------1----------|
G|--------0-----------0-----------0-----------0----|
D|-----2-----2-----2-----2-----2-----2-----2-----2-|
A|--3----------------------------------------------|
E|-------------------------------------------------|

On the shore
e|-------------------------------------------------|
B|--------------1-----------1-----------1----------|
G|--------0-----------0-----------0-----------0----|
D|-----2-----2-----2-----2-----2-----2-----2-----2-|
A|--0----------------------------------------------|
E|-------------------------------------------------|

Playing, hand-in-hand
e|-------------------------------------------------|
B|-------------------------------------------------|
G|--------------2--------------------4-------------|
D|--------3--------3-----3--------5-----5-----5----|
A|-----3-----3--------3--------5-----------5-------|
E|--1-----------------------3----------------------|


e|-------------------------------------------------|
B|--------------1-----------1-----------1----------|
G|--------0-----------0-----------0-----------0----|
D|-----2-----2-----2-----2-----2-----2-----2-----2-|
A|--3----------------------------------------------|
E|-------------------------------------------------|

I'd love to give them
e|-------------------------------------------------|
B|--------------1-----------1-----------1----------|
G|--------0-----------0-----------0-----------0----|
D|-----2-----2-----2-----2-----2-----2-----2-----2-|
A|--3----------------------------------------------|
E|-------------------------------------------------|

All they need
e|-------------------------------------------------|
B|--------------1-----------1-----------1----------|
G|--------0-----------0-----------0-----------0----|
D|-----2-----2-----2-----2-----2-----2-----2-----2-|
A|--0----------------------------------------------|
E|-------------------------------------------------|

And leave them dancing hand-
e|-------------------------------------------------|
B|-------------------------------------------------|
G|--------------2--------------------4-------------|
D|--------3--------3-----3--------5-----5-----5----|
A|-----3-----3--------3--------5-----------5-------|
E|--1-----------------------3----------------------|

in-hand
e|-------------------------------------------------|
B|--------------1-----------------1-----------1----|
G|--------0-----------0-----3-----------3----------|
D|-----2-----2-----2-----2-----2-----2-----2-----2-|
A|--3----------------------------------------------|
E|-------------------------------------------------|

Chorus:

I'm going
e|-------------------------------------------------|
B|-------------------------------------------------|
G|--------------2--------------------4-------------|
D|--------3--------3-----3--------5-----5-----5----|
A|-----3-----3--------3--------5-----------5-------|
E|--1-----------------------3----------------------|

Away
e|-------------------------------------------------|
B|--------------1-----------------1-----------1----|
G|--------0-----------0-----3-----------3----------|
D|-----2-----2-----2-----2-----2-----2-----2-----2-|
A|--3----------------------------------------------|
E|-------------------------------------------------|

I'm going
e|-------------------------------------------------|
B|-------------------------------------------------|
G|--------------2--------------------4-------------|
D|--------3--------3-----3--------5-----5-----5----|
A|-----3-----3--------3--------5-----------5-------|
E|--1-----------------------3----------------------|

Away
e|-------------------------------------------------|
B|--------------1-----------------1-----------1----|
G|--------0-----------0-----3-----------3----------|
D|-----2-----2-----2-----2-----2-----2-----2-----2-|
A|--3----------------------------------------------|
E|-------------------------------------------------|

Where the wind beats heavy
e|-------------------------------------------------|
B|-------------------------------------------------|
G|--------------2--------------------4-------------|
D|--------3--------3-----3--------5-----5-----5----|
A|-----3-----3--------3--------5-----------5-------|
E|--1-----------------------3----------------------|

On the sand
e|-------------------------------------------------|
B|-------------------------------------------------|
G|--------0-----------0-----------------0----------|
D|-----2-----2-----2-----2--------2----------------|
A|--3-----------0--------------2-----2-------------|
E|--------------------------0----------------------|

Do you, want to, come with?
e|-------------------------------------------------|
B|-------------------------------------------------|
G|--------------2--------------------4-------------|
D|--------3--------3-----3--------5-----5-----5----|
A|-----3-----3--------3--------5-----------5-------|
E|--1-----------------------3----------------------|


e|-------------------------------------------------|
B|--------------1-----------1-----------1----------|
G|--------0-----------0-----------0-----------0----|
D|-----2-----2-----2-----2-----2-----2-----2-----2-|
A|--3----------------------------------------------|
E|-------------------------------------------------|

Interlude: Whsitle over the top to signify the piano
           and woodwind.

e|-------------------------------------------------|
B|--------------1-----------1-----------1----------|
G|--------0-----------0-----------0-----------0----|
D|-----2-----2-----2-----2-----2-----2-----2-----2-|
A|--3----------------------------------------------|
E|-------------------------------------------------|

e|-------------------------------------------------|
B|--------------1-----------1-----------1----------|
G|--------0-----------0-----------0-----------0----|
D|-----2-----2-----2-----2-----2-----2-----2-----2-|
A|--0----------------------------------------------|
E|-------------------------------------------------|

e|-------------------------------------------------|
B|-------------------------------------------------|
G|--------------2--------------------4-------------|
D|--------3--------3-----3--------5-----5-----5----|
A|-----3-----3--------3--------5-----------5-------|
E|--1-----------------------3----------------------|

e|-------------------------------------------------|
B|--------------1-----------1-----------1----------|
G|--------0-----------0-----------0-----------0----|
D|-----2-----2-----2-----2-----2-----2-----2-----2-|
A|--3----------------------------------------------|
E|-------------------------------------------------|


Verse 2:

See the green-eyed monsters
e|-------------------------------------------------|
B|--------------1-----------1-----------1----------|
G|--------0-----------0-----------0-----------0----|
D|-----2-----2-----2-----2-----2-----2-----2-----2-|
A|--3----------------------------------------------|
E|-------------------------------------------------|

On the shore
e|-------------------------------------------------|
B|--------------1-----------1-----------1----------|
G|--------0-----------0-----------0-----------0----|
D|-----2-----2-----2-----2-----2-----2-----2-----2-|
A|--0----------------------------------------------|
E|-------------------------------------------------|

Playing, holding hands
e|-------------------------------------------------|
B|-------------------------------------------------|
G|--------------2--------------------4-------------|
D|--------3--------3-----3--------5-----5-----5----|
A|-----3-----3--------3--------5-----------5-------|
E|--1-----------------------3----------------------|


e|-------------------------------------------------|
B|--------------1-----------1-----------1----------|
G|--------0-----------0-----------0-----------0----|
D|-----2-----2-----2-----2-----2-----2-----2-----2-|
A|--3----------------------------------------------|
E|-------------------------------------------------|

I'd love to give them
e|-------------------------------------------------|
B|--------------1-----------1-----------1----------|
G|--------0-----------0-----------0-----------0----|
D|-----2-----2-----2-----2-----2-----2-----2-----2-|
A|--3----------------------------------------------|
E|-------------------------------------------------|

What they really need
e|-------------------------------------------------|
B|--------------1-----------1-----------1----------|
G|--------0-----------0-----------0-----------0----|
D|-----2-----2-----2-----2-----2-----2-----2-----2-|
A|--0----------------------------------------------|
E|-------------------------------------------------|

And leave them all dancing
e|-------------------------------------------------|
B|-------------------------------------------------|
G|--------------2--------------------4-------------|
D|--------3--------3-----3--------5-----5-----5----|
A|-----3-----3--------3--------5-----------5-------|
E|--1-----------------------3----------------------|

hand-in-hand
e|-------------------------------------------------|
B|--------------1-----------------1-----------1----|
G|--------0-----------0-----3-----------3----------|
D|-----2-----2-----2-----2-----2-----2-----2-----2-|
A|--3----------------------------------------------|
E|-------------------------------------------------|

Chorus:

I'm going
e|-------------------------------------------------|
B|-------------------------------------------------|
G|--------------2--------------------4-------------|
D|--------3--------3-----3--------5-----5-----5----|
A|-----3-----3--------3--------5-----------5-------|
E|--1-----------------------3----------------------|

Away
e|-------------------------------------------------|
B|--------------1-----------------1-----------1----|
G|--------0-----------0-----3-----------3----------|
D|-----2-----2-----2-----2-----2-----2-----2-----2-|
A|--3----------------------------------------------|
E|-------------------------------------------------|

I'm going
e|-------------------------------------------------|
B|-------------------------------------------------|
G|--------------2--------------------4-------------|
D|--------3--------3-----3--------5-----5-----5----|
A|-----3-----3--------3--------5-----------5-------|
E|--1-----------------------3----------------------|

Away
e|-------------------------------------------------|
B|--------------1-----------------1-----------1----|
G|--------0-----------0-----3-----------3----------|
D|-----2-----2-----2-----2-----2-----2-----2-----2-|
A|--3----------------------------------------------|
E|-------------------------------------------------|

Where the wind beats heavy
e|-------------------------------------------------|
B|-------------------------------------------------|
G|--------------2--------------------4-------------|
D|--------3--------3-----3--------5-----5-----5----|
A|-----3-----3--------3--------5-----------5-------|
E|--1-----------------------3----------------------|

On the sand
e|-------------------------------------------------|
B|-------------------------------------------------|
G|--------0-----------0-----------------0----------|
D|-----2-----2-----2-----2--------2----------------|
A|--3-----------0--------------2-----2-------------|
E|--------------------------0----------------------|

Do you, want to, come with?
e|-------------------------------------------------|
B|-------------------------------------------------|
G|--------------2--------------------4-------------|
D|--------3--------3-----3--------5-----5-----5----|
A|-----3-----3--------3--------5-----------5-------|
E|--1-----------------------3----------------------|


e|-------------------------------------------------|
B|--------------1-----------------1-----------1----|
G|--------0-----------0-----3-----------3----------|
D|-----2-----2-----2-----2-----2-----2-----2-----2-|
A|--3----------------------------------------------|
E|-------------------------------------------------|

Do you, want to, come with?
e|-------------------------------------------------|
B|-------------------------------------------------|
G|--------------2--------------------4-------------|
D|--------3--------3-----3--------5-----5-----5----|
A|-----3-----3--------3--------5-----------5-------|
E|--1-----------------------3----------------------|


e|-------------------------------------------------|
B|--------------1----------------------------------|
G|--------0-----------0----------------------------|
D|-----2-----2-----2-----2-------------------------|
A|--3-----------------------3----------------------|
E|-------------------------------------------------|

-Ends-
Tap to rate this tab
# A B C D E F G H I J K L M N O P Q R S T U V W X Y Z