Song name
# A B C D E F G H I J K L M N O P Q R S T U V W X Y Z

Stephen Fretwell - Darlin Dont tab

Hi I'm a big Stephen Fretwell fan.  This is my second SF tab and I'm hoping its more 
than my first:-)  This song is on you tube and his new EP and Album.
If you have amendments please send them through (shandyhaggis@yahoo.com)

The song is playd with a capo on the 5th fret and has a sort of alternate thumbing / 
style best seen on the you tube vid http://www.youtube.com/watch?v=7q2KlSXjG3I

Darlin Dont
capo 5th fret


The basic chords are:-

C
Am7
Am7G
F
C

H= Hammer on
T= Thumb

Intro

E|-----0---0---0---0---0---0---0---0---0--------0---0---0---0---0---0---0---0---0--|
B|-----1---1---1---1---1---1---1---1---1--------1---1---1---1---1---1---1---1---1--|
G|-----0---0---0---0---0---0---0---0---0--------0---0---0---0---0---0---0---0---0--|
D|-----2---2---2---2---2---2--H3---3---2--------2---2---2---2---2---2---2---2---2--|
A|-T3--3---3---3---3---3---3---3---3---3-----T3-3---3---3---3---3---3---3---3---3--|
E|---------------------------------------------------------------------------------|

Verse riff 1
E|-----0---0---0---0---0---0---0---0---0---0----0---0---0---0---0---0---0---0---0----0---0---0---0---0---0---0---0---0--|
B|-----1---1---1---1---1---1---1---1---1---1----1---1---1---1---1---1---1---1---1----1---1---1---1---1---1---1---1---1--|
G|-----0---0---0---0---0---0---0---0---0---0----0---0---0---0---0---0---0---0---0----0---0---0---0---0---0---0---0---0--|
D|----T0--T2--T0--T3--T0--T2---0---0------------2---2---2---2---2---2--H3---3---2----2---2---2---2---2---2---2---2---2--|
A|-T3-------------------------T3-----T2---T3----3---3---3---3---3---3---3---3---3----3---3---3---3---3---3---3---3---3--|
E|----------------------------------------------------------------------------------------------------------------------|


Verse riff 2
E|-----0---0---0------0---0---0-------0---0---0-------0---0---0|
B|-----1---1---1------1---1---1-------1---1---1-------1---1---1|
G|-----0---0---0------0---0---0-------2---2---2-------0---0---0|
D|-----2---2---2------2---2---2-------3---3---3-------2---2---2|
A|--T0-0---0---0------0---0---0-------3---3---3--T3---3---3---3|
E|----------------T3--3---3---3--T1---1---1---1----------------|


Am7 Am7/G  FC

Verse riff 3
E|-----x---x---x|
B|-----1---1---1|
G|-----2---2---2|
D|-----3---3---3|
A|-----3---3---3|
E|-T1--1---1---1|

Verse riff 4
E|----x---x|
B|----1---1|
G|---T0--T0|
D|---T3--T3|
A|----3---3|
E|----1---1|


Intro

Riff1
How'd you like the sound of those four letter words?
Riff1
They make me look so clever as I fall to the earth
Riff2
I wanna walk through the morning
And I've not seen the night
riff2
I wanna hold on to you baby
And make you fell alright
Riff2
If I could just draw a line under this stupid way of life
Riff3 x 3 Riff 4
With two eyes open and two eyes feeling alright
Riff1

Riff1
How'd you like the sound of those four letter words?
Riff1
Do they really make me look that clever as I fall to the earth?
Riff2
Ain't it funny how you only ever seem to want what you can't have?
Riff2
And that one little thing well it's driving you mad
Riff2
I'd chase him round and build like that
Riff3 x3
With two eyes open and two eyes staring back
Riff4
You say darlin'
Riff1

Riff3
You say darlin' don't
Riff3
Lift my hand off your thigh and say darlin'
Riff4
darlin' please don't
Riff1

Darlin' would you come and stay with me tonight?
Riff1
Tap to rate this tab
 
# A B C D E F G H I J K L M N O P Q R S T U V W X Y Z