Song name
# A B C D E F G H I J K L M N O P Q R S T U V W X Y Z

Stephen Jerzak - Charades tab

-------------------------------------------------------------------------------
			    Charades - Stephen Jerzak
-------------------------------------------------------------------------------
Tabbed by: Stevie Onuska
Email:

Tuning: Standard

e|---------------------------------------------------------------------------|
B|----7--------7--------7----------7------------7---------7-----------7------|
G|----6--------6--------6----------6------------6---------6-----------6------|
D|-----------------------------------------4---------4----------4------------|
A|---------------------------------------------------------------------------|
E|-7------7--------7----------7----------------------------------------------|

e|---------------------------------------------------------------------------|
B|------7---------9----------9----------9---------9----------7-------7-------|
G|------6---------7----------7----------7---------7----------6-------6-------|
D|-4-------------------------------------------------------------------------|
A|-------------------------------------------------------6-------6-----------|
E|-----------6----------6----------6---------6-------------------------------|

e|---------------------------------------------------------------------------|
B|----7--------7-------------------------------------------------------------|
G|----6--------6-------------------------------------------------------------|
D|-4------4------------------------------------------------------------------|
A|---------------------------------------------------------------------------|
E|---------------------------------------------------------------------------|

This repeats throughout the whole song
During the chorus he starts on the 4-6-7 chord not the 7-6-7 like he does in the 
of the song.
He also does this filler kind of thing with the 7-6-7 chord that goes like this...


e|---------------------------------------------------------------------------|
B|----7--------7----------7-----------7--------------------------------------|
G|----8--------6----------8-----------6--------------------------------------|
D|---------------------------------------------------------------------------|
A|---------------------------------------------------------------------------|
E|-7-------7---------7----------7--------------------------------------------|
Tap to rate this tab
# A B C D E F G H I J K L M N O P Q R S T U V W X Y Z