Song name
# A B C D E F G H I J K L M N O P Q R S T U V W X Y Z

Stephen Jerzak - Goodnight Central Park tab

I searched for the best cover on youtube & picked the one that sounded right.
I did this by eye.
I looked what frets she played and where the fingers were placed.
This is basically what i got.
I'm not 100% it's correct so fix it up a bit if it doesn't sound right to you.
Mainly, you have to get the strums down.
Listen to a cover & learn the strums.(:


E---0---------|
B---5---------|
G-----6-------|
D-------7-----|
A---0---------|
E---0---------|(intro)

E---0---------|
B---5---------|
G----6--------|
D----6--------|
A---0---------|
E---0---------|

E---0---------|
B---5---------|
G----6--------|
D---0---------|
A---0---------|
E---0---------|

E---0---------|
B---5---------|
G-----6-------|
D-------7-----|
A---0---------|
E---0---------|

E---0---------|
B---5---------|
G----6--------|
D----6--------|
A---0---------|
E---0---------|

E---0---------|
B---5---------|
G-----6-------|
D-------7-----|
A---0---------|
E---0---------|

E----6--------|
B---5---------|
G----6--------|
D---0---------|
A---0---------|
E---0---------|

E---0---------|
B---5---------|
G-----6-------|
D-------7-----|
A---0---------|
E---0---------|

E---0---------|
B---5---------|
G----6--------|
D----6--------|
A---0---------|
E---0---------|

E---0---------|
B---5---------|
G----6--------|
D---0---------|
A---0---------|
E---0---------|

E---0---------|
B---5---------|
G-----6-------|
D-------7-----|
A---0---------|
E---0---------|

E---0---------|
B---5---------|
G----6--------|
D----6--------|
A---0---------|
E---0---------|

E---0---------|
B---5---------|
G-----6-------|
D-------7-----|
A---0---------|
E---0---------|

E---0---------|
B---5---------|
G----6--------|
D----6--------|
A---0---------|
E---0---------|

E---0---------|
B---5---------|
G-----6-------|
D-------7-----|
A---0---------|
E---0---------|

E---0---------|
B---5---------|
G----6--------|
D----6--------|
A---0---------|
E---0---------|

E---0---------|
B---5---------|
G----6--------|
D---0---------|
A---0---------|
E---0---------|

E---0---------|
B---5---------|
G-----6-------|
D-------7-----|
A---0---------|
E---0---------|

E---0---------|
B---5---------|
G----6--------|
D----6--------|
A---0---------|
E---0---------|

E---0---------|
B---5---------|
G----6--------|
D---0---------|
A---0---------|
E---0---------|

E---0---------|
B---5---------|
G-----6-------|
D-------7-----|
A---0---------|
E---0---------|

E---0---------|
B---5---------|
G----6--------|
D----6--------|
A---0---------|
E---0---------|

E---0---------|
B---5---------|
G-----6-------|
D-------7-----|
A---0---------|
E---0---------|

E---0---------|
B---5---------|
G----6--------|
D---0---------|
A---0---------|
E---0---------|

E---0---------|
B---5---------|
G-----6-------|
D-------7-----|
A---0---------|
E---0---------|

E---0---------|
B---5---------|
G----6--------|
D----6--------|
A---0---------|
E---0---------|

E---0---------|
B---5---------|
G----6--------|
D---0---------|
A---0---------|
E---0---------|

E---0---------|
B---5---------|
G-----6-------|
D-------7-----|
A---0---------|
E---0---------|

E---0---------|
B---5---------|
G----6--------|
D----6--------|
A---0---------|
E---0---------|

E---0---------|
B---5---------|
G----6--------|
D---0---------|
A---0---------|
E---0---------|

E---0---------|
B---5---------|
G-----6-------|
D-------7-----|
A---0---------|
E---0---------|

E---0---------|
B---5---------|
G----6--------|
D----6--------|
A---0---------|
E---0---------|

E---0---------|
B---5---------|
G----6--------|
D---0---------|
A---0---------|
E---0---------|

E---0---------|
B---5---------|
G-----6-------|
D-------7-----|
A---0---------|
E---0---------|

E---0---------|
B---5---------|
G----6--------|
D----6--------|
A---0---------|
E---0---------|

E---0---------|
B---5---------|
G----6--------|
D---0---------|
A---0---------|
E---0---------|

E---0---------|
B---5---------|
G---0---------|
D----6--------|
A---0---------|
E---0---------|

E---0---------|
B---5---------|
G-----6-------|
D-------7-----|
A---0---------|
E---0---------|

E---0---------|
B---5---------|
G----6--------|
D----6--------|
A---0---------|
E---0---------|

E---0---------|
B---5---------|
G----6--------|
D---0---------|
A---0---------|
E---0---------|

E---0---------|
B---5---------|
G-----6-------|
D-------7-----|
A---0---------|
E---0---------|

This is probably confusing but all you need to do is study the strumming because the 
are in order. Good Luck :p
Tap to rate this tab
# A B C D E F G H I J K L M N O P Q R S T U V W X Y Z