Song name
# A B C D E F G H I J K L M N O P Q R S T U V W X Y Z

Stephen Jerzak - Snow Angel chords

-------------------------------------------------------------------------------
			     Snow Angel - Stephen Jerzak
-------------------------------------------------------------------------------
Tabbed by: Alex.
Email: slipperyfish94@yahoo.com

Tuning: Standard Capo 2nd Fret:

Chords Used:

C:x35533
G:355433
Em:022033
D:x00232

Intro x1 /Verse x4

e|------3-----3-----------3-----3----------------------------3-----3----------|
B|--------3-----------------3-------------8------8-------------3--------------|
G|--4-----------------4---------------9------7-----------5--------------------|
D|--------------------------------------9------9-----------5-----5------------|
A|----5-----5-----------5-----5-------7------7-----------3-----3--------------|
E|--3-----3-----------3-----3-------------------------------------------------|

1st Chorus:

C         G         Em       D
This time next year, I'll be right here
C            G               Em      D
Filling your stocking with a ring
C             G            Em     D         C
And you don't need snow to be the angel you are

Verse x4

Same as Verse 1 except it cuts out the last finger picking part and ends  with a -C-

2nd Chorus:

C         G         Em       D
This time next year, I'll be right here
C            G               Em      D
Filling your stocking with a ring
C             G            Em     D         C
And I don't need snow to be the man in your life


Interlude Thingy

G-C-Em-D


Then Last Chorus:


C         G         Em       D
This time next year, I'll be right here
C            G               Em      D
Filling your stocking with a ring.
C             G            Em  D  C
And we don't need snow to fall in love.

Outro:

It does some weird thing that I can't hear too well so
yea. This is my first tab cut me some slack if its wrong. It sounds right to me so I 
you enjoy ;]
Tap to rate this tab
 
# A B C D E F G H I J K L M N O P Q R S T U V W X Y Z