Song name
# A B C D E F G H I J K L M N O P Q R S T U V W X Y Z

Stephen Jerzak - Together With The Sundown tab

I made this tab in one day and I think it sounds pretty good. It's not
100% perfect but its good enough. The chorus isn't exactally right but
if you listen to it, the cords are really close and sound close enough
but for now, this is the best one out of all the others in my opinion
so good feedback please :D

----------------------------------------------------------------------------
Tune it in DADade

e-0--00---0--------0--00---0--------0--00---0--------0--00---0-------------|
d---0----0---0-0-----0----0----0------0----0--0-0------0----0----0---------|
a---------------0~------------0-0~---------------0~-------------0-0~-------|
D--7----7-----5-----7----7---5-------7----7----5------7----7---5-----------|
A--------------------------------------------------------------------------|
D--------------------------------------------------------------------------|
			^^^ Verse 1/ Intro ^^^

e-0-0-0~-|---0~-0~-0~-0~-0~-0~---------------------------------------------|
d-0-0-0~-|---0~-0~-0~-0~-0~-0~---------------------------------------------|
a-4-7-0~-|---0~-4~-7~-4~-2~-0~---------------------------------------------|
D-4-7-0~-|---0~-4~-7~-4~-2~-0~---------------------------------------------|
A-2-5-0~-|---0~-2~-5~-2~-0~-0~---------------------------------------------|
D-0-0-0~-|---0~-0~-0~-0~-0~-0~---------------------------------------------|
 Pre-Chorus    ^^^ Chorus ^^^

e-0--00---0--------0--00---0--------0--00---0--------0--00---0-------------|
d---0----0---0-0-----0----0--0-0------0----0--0-0------0----0---0-0--------|
a---------------0~--------------0~---------------0~----------------0~------|
D--7----7-----5-----7----7----5------7----7----5------7----7-----5---------|
A--------------------------------------------------------------------------|
D--------------------------------------------------------------------------|

e-0-0-0~-|-0-0-0-0-0-0---------------0-0-0-0-0-0---------0-----------------|
d-0-0-0~-|-0-0-0-0-0-0---------------0-0-0-0-0-0---------0-----------------|
a-4-7-0~-|-0-4-7-4-2-0---------------0-9-0-9-4-0---------4-----------------|
D-4-7-0~-|-0-4-7-4-2-0---------------0-7-0-7-4-0---------4-----------------|
A-2-5-0~-|-0-2-5-2-0-0---------------0-7-0-7-2-0---------2-----------------|
D-0-0-0~-|-0-0-0-0-0-0---------------0-0-0-0-0-0---------0-----------------|
  ^^x2^^   x2 repeat last 3 cords     Bridge x2    end on^

e-0--00--0---------|-0-0-0-0-0-0-|-0~-0~-0~--------------------------------|
d---0---0--0-0-----|-0-0-0-0-0-0-|-0~-0~-0~--------------------------------|
a-------------0~---|-0-4-7-4-2-0-|-4~-7~-0~--------------------------------|
D--7---7----5------|-0-4-7-4-2-0-|-4~-7~-0~--------------------------------|
A------------------|-0-2-5-2-0-0-|-2~-5~-0~--------------------------------|
D------------------|-0-0-0-0-0-0-|-0~-0~-0~--------------------------------|
 ^^x2 palm mute^^      Chorus
Tap to rate this tab
# A B C D E F G H I J K L M N O P Q R S T U V W X Y Z