Song name
# A B C D E F G H I J K L M N O P Q R S T U V W X Y Z

Stephen Jerzak - Lonely Hotel Room chords

Highlighted       Show chord diagrams
Artist: Stephen Jerzak
Song: Lonely Hotel Room

Tuning: F# B E A C# F#

This isn't a very difficult song to learn. I know I got a few chord names wrong, 
but bare with me and enjoy (:

   C       G       F       A#      C#
|-----| |--3--| |-- --| |-- --| |-- --|
|--1--| |--3--| |-- --| |--1--| |--1--|
|--0--| |--0--| |--2--| |--2--| |--0--|
|--2--| |--0--| |--3--| |--2--| |--0--|
|--3--| |--2--| |--3--| |--0--| |--2--|
|-----| |--3--| |--1--| |-- --| |-- --|


Finger picking part:

Intro
|--------0----------0-------------------0---------0----------|
|--1--3-------1--3-------3--1-----1---------1----------------|
|----------------------0------0---0--2------0--2-----0--2--0-|
|------------------------------------------------------------|
|--3----------3-------------------0---------0----------------|
|------------------------------------------------------------|

Verse 1
|--------0----------0-------------------0---------0----------|
|--1--3-------1--3-------3--1-----1---------1----------------|
|----------------------0------0---0--2------0--2-----0--2--0-|
|------------------------------------------------------------|
|--3----------3-------------------0---------0----------------|
|------------------------------------------------------------|
   You....    So...               Me...

|--------0------------0-----------------------0-------0------|
|--1--3-----1---1--3----1-----3--1-----1----------------3----|
|---------------------------0------0---0--2-------1----------|
|-------------------------------------------------2----------|
|--3------------3----------------------0----------3----------|
|------------------------------------------------------------|
   Lately....   I've....               Sleep.... 

Chorus

   C        G       F                 A#        G     F
Without you here in bed, I'll have to dream of you instead.

C              C                     A#
  When I'm away, It's hard to make it through.

          F                                                C
'Cause my head is in the clouds and my heart is there with you.

                C           C#                A#
It's never been easy, But I know this much is true;

            F
And there's nothing I can do.

          F
'Cause my head is in the clouds and my heart is there with you.


Verse 2

|--------0----------0-------------------0---------0----------|
|--1--3-------1--3-------3--1-----1---------1----------------|
|----------------------0------0---0--2------0--2-----0--2--0-|
|------------------------------------------------------------|
|--3----------3-------------------0---------0----------------|
|------------------------------------------------------------|
   Pillow...  Smells...     Perfume...

|--------0------------0-----------------------0-------0------|
|--1--3-----1---1--3----1-----3--1-----1----------------3----|
|---------------------------0------0---0--2-------1----------|
|-------------------------------------------------2----------|
|--3------------3----------------------0----------3----------|
|------------------------------------------------------------|
   It's...      Bring...      Hotel...

Chorus

    C       G     F          F       A#       G     F
Without you by my side, I'll have to dream of you tonight.

C              C                        A#
  When I'm away, It's hard to make it through.

          F                                                C
'Cause my head is in the clouds and my heart is there with you.

                C           C#                F
It's never been easy, But I know this much is true;

            F
And there's nothing I can do...

        F
When my head is in the clouds and my heart is there with you.

[Interlude]
A# G  F
A# G  F

A#         G             F             A#         G          F
Everything reminds me of you; It's the only thing pulling me through.

         A#         G             G                      G
Like the picture of us that comes up when you call me to say "Good night."


Chorus

C              C                        A#
  When I'm away, It's hard to make it through.

          F                                                C
'Cause my head is in the clouds and my heart is there with you.

                C           C#                A#
It's never been easy, But I know this much is true;

          F
'Cause my head is in the clouds and my heart is there with you.

C              C                        A#
  When I'm away, It's hard to make it through.

          F                                                C
'Cause my head is in the clouds and my heart is there with you.

                C           C#                A#
It's never been easy, But I know this much is true;

            F
And there's nothing I can do...

        F                                                F
When my head is in the clouds and my heart is there with you.
Tap to rate this tab
 
# A B C D E F G H I J K L M N O P Q R S T U V W X Y Z