Stephen Jerzak - Charades tab

-----------------------------------------------------------------------------
			     Charades - Stephen Jerzak
-----------------------------------------------------------------------------
Tabbed by: floggingandy
Email: floggingandy@gmail.com

Tuning: Standard

Verse
E|----2-----2-----2-----2----2-----2-----2-----4-----4-------4-------4-|
B|----2-----2-----2-----2----2-----2-----2-----3-----3-------3-------3-|
G|---------------------------------------------------------------------|
D|--------------------4-----4----4-----4-------------------------------|
A|--2-----2-----2-----------------------------1----1-----1-------1-----|
E|---------------------------------------------------------------------|

E|----2-----2-----2-----2-----|
B|----2-----2-----2-----2-----|
G|----------------------------|
D|--1-----1-----4-----4-------|
A|----------------------------| repeats through most of song.
E|----------------------------|

Chorus starts
E|----2-----2----2-----2-----4-----4-----4-----4-|
B|----2-----2----2-----2-----3-----3-----3-----3-|
G|-----------------------------------------------| then repeats verse section
D|--4-----4----4-----4---------------------------|
A|-------------------------1-----1-----1-----1---|
E|-----------------------------------------------|

outro
E|----2-----2-----2-----2-----2-----2-----------------------|
B|----2-----4-----2-----4-----2-----4-----------------------|
G|----------------------------------------------------------|
D|----------------------------------------------------------|
A|--2-----2-----2-----2-----2-----2-------------------------|
E|----------------------------------------------------------|
Tap to rate this tab
 
# A B C D E F G H I J K L M N O P Q R S T U V W X Y Z