Stephen Jerzak - Alone With The Sunrise tab

---------ALONE WITH THE SUNRISE - Stephen Jerzak----------------------------------
Tuning: DADAAE

Tabbed by: TheOfficeJocks (spencerdavis)
Basically, I loved this song way too much to not know how to play it
...so I sat down one day and learned it by ear. 
It's my first tab, so probably not perfect but hey it sure does sound close. 
Let me know if you have any questions or suggestions about it. 
Peace.Love.

Intro
e|--0------0---------0----------------------------------------------|
B|--0------0---------0----------------------------------------------|
G|--0------0---------0----------------------------------------------| x2
D|--7------7---------2----------------------------------------------|
A|--5------0---------0----------------------------------------------|
E|--5------0---------x----------------------------------------------|

Verse
"This is the first time that I've cried in a while"
e|--0------0---------0----------------------------------------------|
B|--0------0---------0----------------------------------------------|
G|--0------0---------0----------------------------------------------| x4
D|--7------7---------2----------------------------------------------|
A|--5------0---------0----------------------------------------------|
E|--5------0---------x----------------------------------------------|

"I thought it was over"
e|----0--------0--------0---------0--------------------0----------|
B|----0--------0--------0---------0--------------------0----------|
G|----0--------0--------0---------0----------------------(on last)|--| x2
D|---0-0------0-0------0-0-------0-0------------------------------|
A|----------------------------------------------------------------|
E|--4--------5--------9---------7----------------------7----------|
(I just pick around the three open top strings)

Chorus
"it's the way that we lie in the sand"
e|--0------0---------0----------------------------------------------|
B|--0------0---------0----------------------------------------------|
G|--0------0---------0----------------------------------------------| x2
D|--7------2---------7----------------------------------------------|
A|--0------0---------5----------------------------------------------|
E|--0------x---------5----------------------------------------------|
 
"and the chances"
e|----0--------------5---------5------0------0-----0~---------------|
B|----0-----------------5------5------0------0-----0~---------------|
G|----0------0----0------0-----0------0------0-----0~---------------|
D|---0-0------------------0----0-----0-0----0-0---0-----------------|
A|-----------------------------0------------------------------------|
E|--9------2----4----5---------5----9------7-----5------------------|

Verse 2
"this is the first time that you've called in a while"
e|--0------0---------0----------------------------------------------|
B|--0------0---------0----------------------------------------------|
G|--0------0---------0----------------------------------------------| x4
D|--7------7---------2----------------------------------------------|
A|--5------0---------0----------------------------------------------|
E|--5------0---------x----------------------------------------------|

"I know its confusing"
e|----0--------0--------0---------0--------------------0----------|
B|----0--------0--------0---------0--------------------0----------|
G|----0--------0--------0---------0----------------------(on last)| x2
D|---0-0------0-0------0-0-------0-0------------------------------|
A|----------------------------------------------------------------|
E|--4--------5--------9---------7----------------------7----------|

Chorus
"it's the way that we"
e|--0------0---------0----------------------------------------------|
B|--0------0---------0----------------------------------------------|
G|--0------0---------0----------------------------------------------| x2
D|--7------2---------7----------------------------------------------|
A|--0------0---------5----------------------------------------------|
E|--0------x---------5----------------------------------------------|
 
"and the chances"
e|----0--------------5---------5------0------0-----0~---------------|
B|----0-----------------5------5------0------0-----0~---------------|
G|----0------0----0------0-----0------0------0-----0~---------------| 
D|---0-0------------------0----0-----0-0----0-0---0-----------------|
A|-----------------------------0------------------------------------|
E|--9------2----4----5---------5----9------7-----5------------------|

"They aren't coming around"
e|----0------0-----0------------------------------------------------|
B|----0------0-----0------------------------------------------------|
G|----0------0-----0------------------------------------------------| x4
D|---0-0----0-0---0-------------------------------------------------|
A|------------------------------------------------------------------|
E|--9------7-----5--------------------------------------------------|
strum whole chord on last 2 parts

Chorus
"it's the way that we lie in the sand"
e|--0------0---------0----------------------------------------------|
B|--0------0---------0----------------------------------------------|
G|--0------0---------0----------------------------------------------| x2
D|--7------2---------7----------------------------------------------|
A|--0------0---------5----------------------------------------------|
E|--0------x---------5----------------------------------------------|
single strum last chorus 

"and the chances"
e|----0--------------5---------5------0------0-----0~---------------|
B|----0-----------------5------5------0------0-----0~---------------|
G|----0------0----0------0-----0------0------0-----0~---------------| 
D|---0-0------------------0----0-----0-0----0-0---0-----------------|
A|-----------------------------0------------------------------------|
E|--9------2----4----5---------5----9------7-----5------------------|



| /  slide up
| \  slide down
| h  hammer-on
| p  pull-off
| ~  vibrato
| +  harmonic
| x  Mute note
Tap to rate this tab
 
# A B C D E F G H I J K L M N O P Q R S T U V W X Y Z