Stephen Jerzak - Snow Angel tab

Hi there. I figured out the tabs for snow angel by stephen jerzak
Amazing song! Hope you guys like it. :))

Anyways, correct me if I'm wrong.
And please rate or comment. :D

Capo on 5th fret
Standard tuning


Verse 1
e---------------------------------------------|
a----2----------------2-----------------------|
d---------------------------------------------|
g----1----------------1-----------------------|
b----------0----------------0-----------------|
e--------0-----0----------0-----0-------------|

e---------------------------------------------|
a-----4---------------0-----------------------|
d---------------------------------------------|
g-----6---------------2-----------------------|
b----------0----------------0-----------------|
e--------0-----0----------0-----0-------------|

Repeat through out the verse

Chorus
There was a chord that he used and i dont know what its called so lets just
call it an F. xD
Tabs:
F: 044200
Am: 002200
E:022100
Bm: 024400

F          Am         E        Bm
This time, next year. I'll be, right here.
F            Am               E        Bm
Filling your stockings with a ring.
F            Am         E                   Am
And you dont need snow, to be the angel you are.

Verse 1
e---------------------------------------------|
a----2----------------2-----------------------|
d---------------------------------------------|
g----1----------------1-----------------------|
b----------0----------------0-----------------|
e--------0-----0----------0-----0-------------|

e---------------------------------------------|
a-----4---------------0-----------------------|
d---------------------------------------------|
g-----6---------------2-----------------------|
b----------0----------------0-----------------|
e--------0-----0----------0-----0-------------|

Repeat through out the verse

F          Am         E        Bm
This time, next year. I'll be, right here.
F            Am               E        Bm
Filling your stockings with a ring.
F            Am         E                   Am
And you dont need snow, to be the man in your life.


F          Am         E        Bm
This time, next year. I'll be, right here.
F            Am               E        Bm
Filling your stockings with a ring.
F            Am         E            Am
And you dont need snow, to fall in love.



Enjoy. :D
Tap to rate this tab
 
# A B C D E F G H I J K L M N O P Q R S T U V W X Y Z