Song name
# A B C D E F G H I J K L M N O P Q R S T U V W X Y Z

Stephen Kellogg And The Sixers - Youve Changed tab

Artist : Stephen Kellogg and The Sixers
Song : You've Changed
Tab by: mwyly87@gmail.com

Figured someone should make a tab for this. It's my first shot at it so it's not perfect.


CAPO 2

Verse:
e|--0----0----0h2--3p2p0---|
B|--2----0----2------------|
G|--2----0----3------------|
D|--2----2-----------------|
A|--0----2-----------------|
E|-------0-----------------|


Chorus:
e|--0----3----0h2--0-------|
B|--0----0----2----2-------|
G|--0----0----3----2-------|
D|--2----0----0----2-------|
A|--2----2---------0-------|
E|--0--2-3-----------------|


Bridge:
Not sure...I think alternate between Bm and G
Tap to rate this tab
# A B C D E F G H I J K L M N O P Q R S T U V W X Y Z