Guitaretab - guitar tabs
Song name
# A B C D E F G H I J K L M N O P Q R S T U V W X Y Z

Stephen Kellogg - Such A Way tab

ďSuch A WayĒ  (Easy Acoustic Version)
Originally by: Stephen Kellogg
Tabbed by: Scott Dillon

This is my first tab, It sounds pretty good. I can't quite figure out the end of the song, sorry.

*Capo 3*                    THESE ARENíT NORMAL CHORDS, PLAY THEM AS I WROTE THEM

   C     F     G    Am   Em    Dm     Am2   C2    G2
e: 3     3     3     0    0     1      3     0     0
B: 1     1     0     1    0     3      1     3     3
G: 0     2     0     2    0     2      0     0     0
D: 2     3     0     2    2     0      2     X     X
A: 3     X     2     0    2     X      0     3     2
E: X     X     3     X    0     X      X     X     X

e|--------------------------------------------------------------------|
B|--------------------------------------------------------------------|
G|--------0-0h2--0--------------------------0--0h2-0------------------|
D|------2------------0h2--0-0-0-0h2-------2-----------0h2-0-0---------|
A|--3-3-------------------------------3-3----------------------33-----|
E|--------------------------------------------------------------------|

         C            F                G                Am
Well the girls in California, they all look the same to me
C                     F        G             C
The way they take for granted, liviní by the sea
C                     Em             F                Dm
They can be your best friend, if you donít expect too much
          C         F            G              C
Cause the girls California, They all believe in love

(C  F G C)

  C                   F        G                 Am
I met this girl named Liz in a bar just south of here
       C              F            G         C
She moved to New York City so that she could disappear
      C                  Em               F                  Dm
And I told her she was beautiful, and she thanked me for the words
       C          F              G                 C
I will never understand just how he got through to her

Am2         G             F
Cause she moves in such a way
     C2             G2            F
That people fall in love with her every single day
      Am2           G                       F
And I canít say Iím immune though Iíve been tryiní to find you
      C2                   G2        F
And I know sheís out there somewhere today
[ Tab from: http://www.guitaretab.com/s/stephen-kellogg/85575.html ]
             C                          F                 G           Am
But then the woman down the street from me sheís got this daughter of 20 years
       C            F              G               C
With a shorn-kissed smile that the winter wonít go near
        C                  Em                F                  Dm
And her hips could shake a mountain, and her lips could start a fire
          C                  F                        G       C
Just like Nabakov, all these men walk by, and as they do they conspire

Am2         G             F
Cause she moves in such a way
     C2             G2            F
That people fall in love with her every single day
      Am2           G                       F
And I canít say Iím immune though Iíve been tryiní to fut through
        C2                G2                F
Through all this lust and all this love in me

e|--------------------------------------------------------------------|
B|--------------------------------------------------------------------|
G|--------0-0h2--0--------------------------0--0h2-0------------------|
D|------2------------0h2--0-0-0-0h2-------2-----------0h2-0-0---------|
A|--3-3-------------------------------3-3----------------------33-----|
E|--------------------------------------------------------------------|

     C                      F                   G                Am
Then thereís this girl from Greenwich, she just stopped me in my tracks
    C                 F              G               C
She tells me when Iím wrong, and she always makes me laugh
       C              Em         F           Dm
And of all the pretty women that I see every day,
C              F       G               C
Sheís the only one who moves in such a way


Am2       G               F
Cause she moves in such a way
     C2              G2            F
That I still fall in love with her every single day
      Am2           G                        F
And I canít say Iím immune, though Iíve been tryiní to show you
                   C2                            G2            F
Ahh that you could have my heart, that you could take my heart today
                      C2                            G2            F
That Darlin you could have my heart, you could just take my heart away

And then she comes and she lifts me up

She lifts me up every single day

Yeah Ah yeah yeah

e|--------------------------------------------------------------------|
B|--------------------------------------------------------------------|
G|--------0-0h2--0--------------------------0--0h2-0------------------|
D|------2------------0h2--0-0-0-0h2-------2-----------0h2-0-0---------|
A|--3-3-------------------------------3-3----------------------33-----|
E|--------------------------------------------------------------------|
Related for Such A Way tab