Song name
# A B C D E F G H I J K L M N O P Q R S T U V W X Y Z

Stephen Lynch - Three Balloons tab

                           T h r e e   B a l l o o n s
                            S T E P H E N   L Y N C H



   +--------------------------PLEASE NOTE--------------------------+
   + This file is Jordan Lappings own work and represents his     +
   + interpretation of the song. You may only use this file for    +
   + private study, scholarship, or research. The contents may not +
   + be duplicated for use with other websites without written     +
   + permission. Thank you for understanding. Enjoy.               +
   +---------------------------------------------------------------+


Tabbed by Jordan Lapping

Standard E Tuning


 CHORDS USED:
     A Asus2 Asus4 Gsus2 Bm   D    G    G5
e]---0----0----0----3----2----2----3----3---|
B]---2----0----3----3----3----3----3----3---|
G]---2----2----2----2----4----2----0----0---|
D]---2----2----2----0----4----0----0----0---|
A]---0----0----0----0----2---------2--------|
E]------------------3--------------3--------|


 INTRO:
    D
e]--2-2222222--|
B]--3-3333333--|
G]--2-2222222--|
D]--0-0000000--| (x4)
A]-------------|
E]-------------|


 VERSE 1:
    Bm         G              D          A     Asus2
e]--2-2222222-----3333-3-333--2-2222222--0-00000-0-00--|
B]--3-3333333-----0000-0-000--3-3333333--2-22222p0h22--|
G]--4-4444444-----0000-0-000--2-2222222--2-22222-2-22--|
D]--4-4444444-----0000-0-000--0-0000000--2-22222-2-22--|
A]--2-2222222-----2222p0h222-------------0-00000-0-00--|
E]-------------3~-3333-3-333---------------------------|

    Bm         G            D          A     Asus2
e]--2-2222222-----33333333--2-2222222--0-00000-0-00--|
B]--3-3333333-----00000000--3-3333333--2-22222p0h22--|
G]--4-4444444-----00000000--2-2222222--2-22222-2-22--|
D]--4-4444444-----00000000--0-0000000--2-22222-2-22--|
A]--2-2222222-----22222222-------------0-00000-0-00--|
E]-------------3~-33333333---------------------------|

 Bm                              G
Call you from my car to say I'll be there in a while
  D                                  A                     Asus2
Short plane ride and I would get to see your pretty smile
         Bm                      G
There's nothing on the radio, I fiddle with the dial
      D                               A                 Asus2
And then I see a sign; the airport's just another mile


 PRE-CHORUS 1:
    Bm      G       D       A
e]--222222--333333--222222--000000--|
B]--333333--000000--333333--222222--|
G]--444444--000000--222222--222222--|
D]--444444--000000--000000--222222--|
A]--222222--222222----------000000--|
E]----------333333------------------|

    Bm      G       D       A
e]--222222--333333--222222--0-0-0-0-0--xxxxxxxx--|
B]--333333--000000--333333--2-2-2-2-2--xxxxxxxx--|
G]--444444--000000--222222--2-2-2-2-2--xxxxxxxx--|
D]--444444--000000--000000--2-2-2-2-2--xxxxxxxx--|
A]--222222--222222----------0-0-0-0-0--xxxxxxxx--|
E]----------333333---------------------xxxxxxxx--|

    Bm                G              D              A
I check my bags and think about how much I hate to fly
    Bm           G         D               A
And as I near security, I almost start to cry...


 CHORUS 1:
    D      G      A          D      G      A     Asus2
e]--2-222--33333--00000000-|-2-222--33333--0-00000-0-00--|
B]--3-333--33333--22222222-|-3-333--33333--2-22222p0h22--|
G]--2-222--00000--22222222-|-2-222--00000--2-22222-2-22--|
D]--0-000--00000--22222222-|-0-000--00000--2-22222-2-22--|
A]---------22222--00000000-|--------22222--0-00000-0-00--|
E]---------33333-----------|--------33333----------------|

    D      G      A          D      G      A      Asus4 A
e]--2-222--33333--00000000-|-2-222--33333--0-00000-0000-0~~--|
B]--3-333--33333--22222222-|-3-333--33333--2-22222h3333p2~~--|
G]--2-222--00000--22222222-|-2-222--00000--2-22222-2222-2~~--|
D]--0-000--00000--22222222-|-0-000--00000--2-22222-2222-2~~--|
A]---------22222--00000000-|--------22222--0-00000-0000-0~~--|
E]---------33333-----------|--------33333--------------------|

         D              G                A
Well, I hope the Law Enforcement Agents can't tell from my face
         D               G            A                Asus2
I got three balloons of coke in an uncomfortable place
      D               G              A
I'm sweating and I'm nervous, and I need a little air
             D                G                      A                 Asus4  A
'Cause with four balloons of heroine, it's getting crowded up in there...
N/C
Crowded up in there...


 INTERLUDE 1:
    D                 Gsus2     G5   Asus4 A
e]--2-2-2-2-2-2-2-22--3-3-3-33--3333--xxxx-x--|
B]--3-3-3-3-3-3-3-33--3-3-3-33--3333--3333p2--|
G]--2-2-2-2-2-2-2-22--2-2-2-22--0000--2222-2--|
D]--0-0-0-0-0-0-0-00--0-0-0-00--0000--2222-2--|
A]--------------------0-0-0-00--------0000-0--|
E]--------------------3-3-3-33----------------|

    D                 Gsus2    Asus4 A
e]--2-2-2-2-2-2-2-22--3-3-3-33--x----x--|
B]--3-3-3-3-3-3-3-33--3-3-3-33--3~---2--|
G]--2-2-2-2-2-2-2-22--2-2-2-22--2~---2--|
D]--0-0-0-0-0-0-0-00--0-0-0-00--2~---2--|
A]--------------------0-0-0-00--0----0--|
E]--------------------3-3-3-33----------|


 VERSE 2:
    Bm         G            D          A
e]--2-2222222-----33333333--2-2222222--0-00000000--|
B]--3-3333333-----00000000--3-3333333--2-22222222--|
G]--4-4444444-----00000000--2-2222222--2-22222222--|
D]--4-4444444-----00000000--0-0000000--2-22222222--| (x2)
A]--2-2222222-----22222222-------------0-00000000--|
E]-------------3~-33333333-------------------------|

    Bm                           G
My mind is all a jumble and my blood's as cold as ice
    D                               A
I dread the thought of having to unload this merchandise
    Bm                               G
"Relax" I say, "It's not so bad; it might feel kinda nice"
    D                             A
"Besides, who hasn't had a finger up there once or twice?"


 PRE-CHORUS 2:
    Bm      G       D       A
e]--222222--333333--222222--000000--|
B]--333333--000000--333333--222222--|
G]--444444--000000--222222--222222--|
D]--444444--000000--000000--222222--|
A]--222222--222222----------000000--|
E]----------333333------------------|

    Bm      G       D       A
e]--222222--333333--222222--0-0-0-0-0--xxxxxxxx--|
B]--333333--000000--333333--2-2-2-2-2--xxxxxxxx--|
G]--444444--000000--222222--2-2-2-2-2--xxxxxxxx--|
D]--444444--000000--000000--2-2-2-2-2--xxxxxxxx--|
A]--222222--222222----------0-0-0-0-0--xxxxxxxx--|
E]----------333333---------------------xxxxxxxx--|

   Bm             G                D               A
I must remember, don't leave any drugs inside the host
   Bm                  G                  D         A
I did that once and a girl who tossed my salad overdosed


 CHORUS 2:
    D      G      A
e]--2-222--33333--0-000000--|
B]--3-333--33333--2-222222--|
G]--2-222--00000--2-222222--|
D]--0-000--00000--2-222222--| (x3)
A]---------22222--0-000000--|
E]---------33333------------|

    D      G      A      Asus4 A
e]--2-222--33333--0-00000-0000-000000000--|
B]--3-333--33333--2-22222h3333p222222222--|
G]--2-222--00000--2-22222-2222-222222222--|
D]--0-000--00000--2-22222-2222-222222222--|
A]---------22222--0-00000-0000-000000000--|
E]---------33333--------------------------|

         D              G                A
Well, I hope the Law Enforcement Agents can't tell from my face
         D               G            A
I got three balloons of coke in an uncomfortable place
      D               G              A
I'm sweating and I'm nervous, and I need a little air
             D                G                      A                  Asus4
'Cause with four balloons of heroine, it's getting crowded up in there...
A
Ohh, in the darriere...


 INTERLUDE: 
    D                 Gsus2     G5   Asus4 A
e]--2-2-2-2-2-2-2-22--3-3-3-33--3333--xxxx-x--|
B]--3-3-3-3-3-3-3-33--3-3-3-33--3333--3333p2--|
G]--2-2-2-2-2-2-2-22--2-2-2-22--0000--2222-2--|
D]--0-0-0-0-0-0-0-00--0-0-0-00--0000--2222-2--|
A]--------------------0-0-0-00--------0000-0--|
E]--------------------3-3-3-33----------------|

    D                 Gsus2    Asus4 A
e]--2-2-2-2-2-2-2-22--3-3-3-33--x----x--|
B]--3-3-3-3-3-3-3-33--3-3-3-33--3~---2--|
G]--2-2-2-2-2-2-2-22--2-2-2-22--2~---2--|
D]--0-0-0-0-0-0-0-00--0-0-0-00--2~---2--|
A]--------------------0-0-0-00--0----0--|
E]--------------------3-3-3-33----------|


 BRIDGE:
    Bm         G          D          A
e]--2-2222222--3-3333333--2-2222222--0-00000000--|
B]--3-3333333--0-0000000--3-3333333--2-22222222--|
G]--4-4444444--0-0000000--2-2222222--2-22222222--|
D]--4-4444444--0-0000000--0-0000000--2-22222222--|
A]--2-2222222--2-2222222-------------0-00000000--|
E]-------------3-3333333-------------------------|

    Bm         G          D          A     Asus2   A
e]--2-2222222--3-3333333--2-2222222--0-00000-0-000-0-0-0-0-0-0-0-0--|
B]--3-3333333--0-0000000--3-3333333--2-22222p0h222-2-2-2-2-2-2-2-2--|
G]--4-4444444--0-0000000--2-2222222--2-22222-2-222-2-2-2-2-2-2-2-2--|
D]--4-4444444--0-0000000--0-0000000--2-22222-2-222-2-2-2-2-2-2-2-2--|
A]--2-2222222--2-2222222-------------0-00000-0-000-0-0-0-0-0-0-0-0--|
E]-------------3-3333333--------------------------------------------|

   Bm                        G
I was a little eager when I loaded up my stash
 D                        A
Five balloons of extasy, six balloons of hash
  Bm                    G
Eight balloons of LSD, nine of sensie mild
   D                                A                Asus2   A
A box of Chinese Fireworks, and a Guatemalan child...


 PRE-CHORUS 3:
    Bm      G       D       A
e]--222222--333333--222222--000000--|
B]--333333--000000--333333--222222--|
G]--444444--000000--222222--222222--|
D]--444444--000000--000000--222222--|
A]--222222--222222----------000000--|
E]----------333333------------------|

    Bm      G       D       A                   Asus2
e]--222222--333333--222222--0-0-0-0-0-0-0-0-0-0-0-0-0-0-0-xxxxxxxx--|
B]--333333--000000--333333--2-2-2-2-2-2-2-2-2-2p0-0-0-0-0-xxxxxxxx--|
G]--444444--000000--222222--2-2-2-2-2-2-2-2-2-2-2-2-2-2-2-xxxxxxxx--|
D]--444444--000000--000000--2-2-2-2-2-2-2-2-2-2-2-2-2-2-2-xxxxxxxx--|
A]--222222--222222----------0-0-0-0-0-0-0-0-0-0-0-0-0-0-0-xxxxxxxx--|
E]----------333333----------------------------------------xxxxxxxx--|

   Bm             G               D              A
I made it to the gate now and my joy I can't contain
   Bm                  G                   D               A     Asus2
I board the aircraft, take my seat in the cockpit of the plane...


 CHORUS 3:
    D      G      A          D      G      A     Asus2
e]--22222--33333--00000000-|-22222--33333--0000000-0-00--|
B]--33333--33333--22222222-|-33333--33333--2222222p0h22--|
G]--22222--00000--22222222-|-22222--00000--2222222-2-22--|
D]--00000--00000--22222222-|-00000--00000--2222222-2-22--|
A]---------22222--00000000-|--------22222--0000000-0-00--|
E]---------33333-----------|--------33333----------------|

    D      G      A          D      G      A      Asus4 A
e]--22222--33333--00000000-|-22222--33333--0000000-0000-000000000--|
B]--33333--33333--22222222-|-33333--33333--2222222h3333p222222222--|
G]--22222--00000--22222222-|-22222--00000--2222222-2222-222222222--|
D]--00000--00000--22222222-|-00000--00000--2222222-2222-222222222--|
A]---------22222--00000000-|--------22222--0000000-0000-000000000--|
E]---------33333-----------|--------33333--------------------------|

            D             G                A
Well, as I taxi down the runway, I got a smile on my face
         D               G            A                Asus2
I got three balloons of coke in an uncomfortable place
          D                G               A
"Flying Crew, prepare for take-off!" as I lift us in the air
      D                G                      A                 Asus4  A
With four balloons of heroine, it's getting crowded up in there...
N/C
In the darriere...

 OUTRO:
    D                 Gsus2     G5    Asus4
e]--2-2-2-2-2-2-2-22--3-3-3-33--3333--xxxxx--|
B]--3-3-3-3-3-3-3-33--3-3-3-33--3333--33333--|
G]--2-2-2-2-2-2-2-22--2-2-2-22--0000--22222--|
D]--0-0-0-0-0-0-0-00--0-0-0-00--0000--22222--|
A]--------------------0-0-0-00--------00000--|
E]--------------------3-3-3-33---------------|

    D                 Gsus2    Asus4 A    D
e]--2-2-2-2-2-2-2-22--3-3-3-33--x-x--x-x--2~~~--|
B]--3-3-3-3-3-3-3-33--3-3-3-33--3-3--2-2--3~~~--|
G]--2-2-2-2-2-2-2-22--2-2-2-22--2-2--2-2--2~~~--|
D]--0-0-0-0-0-0-0-00--0-0-0-00--2-2--2-2--0~~~--|
A]--------------------0-0-0-00--0-0--0-0--------|
E]--------------------3-3-3-33------------------|






Tap to rate this tab
# A B C D E F G H I J K L M N O P Q R S T U V W X Y Z