Song name
# A B C D E F G H I J K L M N O P Q R S T U V W X Y Z

Stephen Lynch - Voices In My Head tab

Artist: Stephen Lynch
Song: Voices In My Head
Album: The Craig Machine
Homepage: http://www.stephenlynch.com/
Tabbed by: Henrik Engebretsen

Intro:

  G   Bm   G   Bm   G   Bm   G   Bm
e|--3--2--|--3--2--|--3--2--|--3--2--|
B|--3--3--|--3--3--|--3--3--|--3--3--|
G|--0--4--|--0--4--|--0--4--|--0--4--|
D|--------|--------|--------|--------|
A|----2-0-|----2-0-|----2-0-|----2-0-|
E|3-------|3-------|3-------|3-------|


Verse:

  G   Bm   G   Bm   G   Bm   G   Bm
e|--3--2--|--3--2--|--3--2--|--3--2--|
B|--3--3--|--3--3--|--3--3--|--3--3--|
G|--0--4--|--0--4--|--0--4--|--0--4--|
D|--------|--------|--------|--------|
A|----2-0-|----2-0-|----2-0-|----2-0-|
E|3-------|3-------|3-------|3-------|

  G   Bm   G   Bm   G   Bm   G   Bm
e|--3--2--|--3--2--|--3--2--|--3--2--|
B|--3--3--|--3--3--|--3--3--|--3--3--|
G|--0--4--|--0--4--|--0--4--|--0--4--|
D|--------|--------|--------|--------|
A|----2-0-|----2-0-|----2-0-|----2-0-|
E|3-------|3-------|3-------|3-------|

  Em  Bm   Em  Bm   Em  Bm   Em  Bm
e|--0--2--|--0--2--|--0--2--|--0--2--|
B|--0--3--|--0--3--|--0--3--|--0--3--|
G|--0--4--|--0--4--|--0--4--|--0--4--|
D|--------|--------|--------|--------|
A|----2-0-|----2-0-|----2-0-|----2-0-|
E|0-------|0-------|0-------|0-------|

  G   Bm   G   Bm   G   Bm   G   Bm
e|--3--2--|--3--2--|--3--2--|--3--2--|
B|--3--3--|--3--3--|--3--3--|--3--3--|
G|--0--4--|--0--4--|--0--4--|--0--4--|
D|--------|--------|--------|--------|
A|----2-0-|----2-0-|----2-0-|----2-0-|
E|3-------|3-------|3-------|3-------|


Chorus:

  C   C    D   D    C   C    D   D
e|--0--0--|--2--2--|--0--0--|--2--2--|
B|--1--1--|--3--3--|--1--1--|--3--3--|
G|--0--0--|--2--2--|--0--0--|--2--2--|
D|--------|0---0-0-|--------|0---0-0-|
A|3---3---|--------|3---3---|--------|
E|--------|--------|--------|--------|

  C   C    D   D
e|--0--0--|--2--2--|
B|--1--1--|--3--3--|
G|--0--0--|--2--2--|
D|--------|0---0-0-|
A|3---3---|--------|
E|--------|--------|


Break:

  G   Bm   G   Bm   G   Bm   G   Bm
e|--3--2--|--3--2--|--3--2--|--3--2--|
B|--3--3--|--3--3--|--3--3--|--3--3--|
G|--0--4--|--0--4--|--0--4--|--0--4--|
D|--------|--------|--------|--------|
A|----2-0-|----2-0-|----2-0-|----2-0-|
E|3-------|3-------|3-------|3-------|


This should be as accurate as possible! Please rate & comment!
Tap to rate this tab
# A B C D E F G H I J K L M N O P Q R S T U V W X Y Z