Stephen Lynch - What If God Smoked Cannabis tab

This is the starting part of the song.
if you listen to the song you will hear the tempo of playing 
 e0------2-----3----------------------]
 B----------------0---0---1---3-------]
 G------------------------------------]x2
 D------------------------------------]
 A------------------------------------]
 E------------------------------------]

Same stuff but slightly slower than before.

 e0----2-----3------------------------]
 B-----------------0-----0-----1-----3]
 G------------------------------------]x1
 D------------------------------------]
 A------------------------------------]
 E------------------------------------]

This is not the whole intro but the part a beginner was able to take out from 
hearing it 2-3 times.
Tap to rate this tab
 
# A B C D E F G H I J K L M N O P Q R S T U V W X Y Z