Guitaretab - guitar tabs
Song name
# A B C D E F G H I J K L M N O P Q R S T U V W X Y Z

Stephen Lynch - Mothers Day Song tab

This is off the "A Little Bit Special" and "Superhero" album
if you're such a Lynch fan as I am! 

Mother's Day Song

e ---------------------------------
b -----2----------------2----------
g ------2----------------2---------
d ----2--2-------------2--2--------
a -0----------------0--------------
e ---------3--0--3----------3--0--3    continues for a while
[ Tab from: ]
Thank you dear lady,
for being my mom
you did all my homework
you took me to prom

     B             G     N/C
and I was the only guy...who got lucky that night

(back to)
e -----------------------------------0
b -----2----------------2------------2
g ------2----------------2-----------2
d ----2--2-------------2--2----------2
a -0----------------0----------------0
e ---------3--0--3----------3--0--3---  (end)
Related for Mothers Day Song tab