Song name
# A B C D E F G H I J K L M N O P Q R S T U V W X Y Z

Stephen Lynch - Jim Hensons Dead tab

Tuning - Standard

This is the version he plays on 'A Little Bit Special'.  There is one note difference
to the live version as he makes a mistake in the first verse but it's unnoticable.

This song requires pretty good fingerpicking skills.  There don't seem to be any other
tabs on the net for this that aren't just bad chords so, enjoy.


Intro

|-----3---------3-|-------------3---|-----3---------3-|-------------3---|
|---3---------3---|-----3-----3---3-|---3---------3---|-----3-----3---3-|
|-3-----0---2-----|---0-----0-------|-3-----0---2-----|---0-----0-------|
|---------3-------|-----------------|---------3-------|-----------------|
|-----------------|-3---------------|-----------------|-3---------------|
|-----------------|-------3---------|-----------------|-------3---------|


Pre-Verse
 
|-------3---------|-----------------|-------3---------|-----------------|
|-----3---3-------|-----3-----3-----|-----3---3-------|-----3-----3-----|
|---0-------0---2-|---2-----0-----0-|---0-------0---2-|---2-----0-----0-|
|-------------0---|-3-----2---------|-------------0---|-3-----2---------|
|-----------------|-------------3---|-----------------|-------------3---|
|-3---------------|-----------------|-3---------------|-----------------|


Verse

Pokemons a          silly   phase     Barney's now just purple haze

|-------3---------|-----------------|-------3---------|-----------------|
|-----3---3-------|-----1-----1-----|-----3---3-------|-----1-----1-----|
|---0-------0---0-|---2-----0-----0-|---0-------0---0-|---2-----0-----0-|
|-------------0---|-3---------------|-------------0---|-3-----2---------|
|-----------------|-------3-----3---|-----------------|-------------3---|
|-3---------------|-----------------|-3---------------|-----------------|


Then 3x during first verse

||--------3---------|------------------|-------3---------|--------------------||
||o-----3---3-------|-----1-----1------|-----3---3-------|-----1-----1-------o||
||----0-------0---0-|---2-----0-----0--|---0-------0---0-|---2-----0-----0----||
||--------------0---|-3-----2----------|-------------0---|-3-----2------------||
||o-----------------|-------------3----|-----------------|-------------3-----o||
||--3---------------|------------------|-3---------------|--------------------||


Chorus

Ji - m   Hen - sons   De ead and gone-e
 
|-------1-(1)-------|-------3-(3)-------|
|-----3-------3-----|-----3-------3-----|
|---2-----------2---|---0-----------0---|
|-0---------------0-|-----------------0-|
|-------------------|-------------------|
|-------------------|-3-----------------|


|-------1-(1)-------|-------3-(3)-------|
|-----3-------3-----|-----3-------3-----|
|---2-----------2---|---0-----------0---|
|-0---------------0-|-----------------0-|
|-------------------|-------------------|
|-------------------|-3-----------------|


Kermit's still hot    cause it's still not easy bee - eing -
|-------0-(0)-------|-------0-(0)-------|-------0-(0)-------|----------3--|
|-----1-------1-----|-----1-------1-----|-----1-------1-----|-------3-----|
|---2-----------2---|---0-----------0---|---2-----------2---|----0--------|
|-3---------------3-|-2---------------2-|-3---------------3-|-------------|
|-------------------|-------------------|-------------------|-------------|
|-------------------|-------------------|-------------------|-3-----------|


Pre-Verse 2

 Gree -een 
|-------3---------|-----------------|-------3---------|-----------------|
|-----3---3-------|-----1-----1-----|-----3---3-------|-----1-----1-----|
|---0-------0---0-|---2-----0-----0-|---0-------0---0-|---2-----0-----0-|
|-------------0---|-3-----2---------|-------------0---|-3-----2---------|
|-----------------|-------------3---|-----------------|-------------3---|
|-3---------------|-----------------|-3---------------|-----------------|

Verse 2

The verse are now strummed...

Verses
G G F C

Chorus
Dm G Dm G F C F G

Hopefully you can figure out the strumming.  After the last chorus you play the verse again twice
and then play the intro twice, ending on a G chord.

Thank you!
Tap to rate this tab
 
# A B C D E F G H I J K L M N O P Q R S T U V W X Y Z