Guitaretab - guitar tabs
Song name
# A B C D E F G H I J K L M N O P Q R S T U V W X Y Z

Stephen Lynch - Hermaphrodite tab

-----------------------------------------------------------------------
			     Hermaphrodite ? Stephen Lynch
-----------------------------------------------------------------------

By:Brisax69@aol.com  this song is very funny

  Intro, verse, and interlude
e|--0---0--------------------------------------------------------------|
B|--0---1--------------------------------------------------------------|
G|--1---0--------------------------------------------------------------|
D|--2---2--------------------------------------------------------------|
A|--2---3--------------------------------------------------------------|
E|--0---3--------------------------------------------------------------|
[ Tab from: http://www.guitaretab.com/s/stephen-lynch/40867.html ]
  Part after verse
e|--0--1---------------------------------------------------------------|
B|--0--1---------------------------------------------------------------|
G|--1--2---------------------------------------------------------------|
D|--2--3---------------------------------------------------------------|
A|--2--3---------------------------------------------------------------|
E|--0--1---------------------------------------------------------------|

   Chorus
e|--0--0--0------------------------------------------------------------|
B|--0--1--3------------------------------------------------------------|
G|--1--0--0------------------------------------------------------------|
D|--2--2--4------------------------------------------------------------|
A|--2--3--5------------------------------------------------------------|
E|--0--3--5------------------------------------------------------------|

The album is very funny and this song is one of the funniest. Listen to the song for rhythms.
Related for Hermaphrodite tab
×
Hermaphrodite